Simple Plan - Perfect Chords & Tabs

 

Perfect Chords & Tabs

Simple Plan Chords & Tabs

Version: 7 Type: Tab 0 ratings
1 star 2 stars 3 stars 4 stars 5 stars
comments

Perfect Tab

------------------------------------------------------------------------------
                      SIMPLE PLAN-Perfect
------------------------------------------------------------------------------
As soon as i heard this song, i knew i wanted to tab it out cause
it is an awesome song that sorta reminds me of my dad too.  ENJOY!
TABBED BY:  Rob (freeskier20@hotmail.com)


e|------------------------------------------------------------------------------
B|-----------------7-9----------------------------------------------------------
G|-9-8-9-------9-8-8------------------------------------------------------------
D|-9-9-9-7-6---9-7-9---7-6------------------------------------------------------
A|-7-----7--7--7-------7--7-----------------------------------------------------
E|-------5-------------5--------------------------------------------------------
that's the intro and most of the verse...the rest is below 

e|------------------------------------------------------------------------------
B|------------------------------------------------------------------------------
G|-9-9-11-11-11-14-14-13-13--13/14\13----16-14-13-9-----------------------------
D|------------------------------------------------------------------------------
A|-7-7-9--9--9--12-12-11-11--11/12\11----14-12-11-7-----------------------------
E|------------------------------------------------------------------------------
Play that 3 times then play.... This after the third 

e|------------------------------------------------------------------------------
B|------------------------------------------------------------------------------
G|---------2-2-2-2--------------------------------------------------------------
D|-2-2-2-2-2-2-2-2--------------------------------------------------------------
A|-2-2-2-2-0-0-0-0--------------------------------------------------------------
E|-0-0-0-0----------------------------------------------------------------------
this is the rythm during the lead riff tabbed above..easy stuff 
[ Tab from: http://www.guitartabs.cc/tabs/s/simple_plan/perfect_tab_ver_7.html ]
e|-----2-----0---0-------2-0----------------------------------------------------
B|-----2-----2---0-------2-2----------------------------------------------------
G|-----2-----2---1-------2-2----------------------------------------------------
D|---4-----2---2-2-----4---2----------------------------------------------------
A|-------0-----2-2---------0----------------------------------------------------
E|-2-----------0-0---2----------------------------------------------------------
the verse is the same as the intro. This is the "And now I Try" part 

e|-0----------------------------------------------------------------------------
B|-0----------------------------------------------------------------------------
G|-1----9-8-----8-9---9-9-8--9---9-8-----8-9---9--------------------------------
D|-2----9-------9-----9-9-9--9---9-------9-----9--------------------------------
A|-2-------------------------7--------------------------------------------------
E|-0--7-----7-9----------------7-----7-9----------------------------------------
chorus 

e|------------------------------------------------------------------------------
B|------------------------------------------------------------------------------
G|-------------------------------------9-9-9-9-9\----------------------9-9-9-9--
D|-9-9-9-9-9-9-9-9-7-7-7-7-9-9-9-2-2-2-9-9-9-9-9\--7-7-7-7-9-9-9-2-2-2-9-9-9-9--
A|-9-9-9-9-9-9-9-9-7-7-7-7-9-9-9-2-2-2-7-7-7-7-7\--7-7-7-7-9-9-9-2-2-2-7-7-7-7--
E|-7-7-7-7-7-7-7-7-5-5-5-5-7-7-7-0-0-0-0-0-0-0-0\--5-5-5-5-7-7-7-0-0-0-0-0-0-0--
this is the bridge 

e|------------------------------------------------------------------------------
B|------------------------------------------------------------------------------
G|-9-\--------------------------------------------------------------------------
D|-9-\--11-11-11-11-11-11-11-11-9-9-9-9-9-9-9-9-7-7-7-7-7-7-7-7-7---------------
A|-7-\--11-11-11-11-11-11-11-11-9-9-9-9-9-9-9-9-7-7-7-7-7-7-7-7-7---------------
E|-0-\--9--9--9--9--9--9--9--9--7-7-7-7-7-7-7-7-5-5-5-5-5-5-5-5-5---------------

 

e|------------------------------------------------------------------------------
B|------------------------------------------------------------------------------
G|---------4-4-4-4-6-6-6-6-2-2-2-2----------------------------------------------
D|-2-2-2-2-4-4-4-4-6-6-6-6-2-2-2-2----------------------------------------------
A|-2-2-2-2-2-2-2-2-4-4-4-4-0-0-0-0----------------------------------------------
E|-0-0-0-0----------------------------------------------------------------------
and now the chorus at the end...it's very easy
Comments