Simple Plan - Perfect Chords & Tabs

 

Perfect Chords & Tabs

Simple Plan Chords & Tabs

Version: 6 Type: Tab 0 ratings
1 star 2 stars 3 stars 4 stars 5 stars
comments

Perfect Tab

--------------------------------------------------------------------- 
			     Perfect - Simple Plan
----------------------------------------------------------------------
capo first fret, tab relative to capo
By:Stiges

Intro:
e|--------------------------------------------------------------------
B|---------------------------------------------^--^-------------------
G|-7-6-7----------7-6-7-9----------7-9-12-11-11 12 11-------------- --
D|-7-7-7---5-4-0--7-7-7-7--5-4-0--------------------------------------
A|-5-5-5---5-5-5--5-5-5-5--5-5-5--------------------------------------
E|---------3-3-3-----------3-3-3--------------------------------------

Verse 1                        Pre-chorus: "I try hard to make it...."
e|-----------------------------0--5-----------------------------------
B|-----------------------------0--7-----------------------------------
G|-7-6-7---------7-6-7---------4--7-----------------------------------
D|-7-7-7--5-5-5--7-7-7--5-5-5--5--7-----------------------------------
A|-5-5-5--5-5-5--5-5-5--5-5-5--5--5-----------------------------------
E|--------3-3-3---------3-3-3--3--------------------------------------
[ Tab from: http://www.guitartabs.cc/tabs/s/simple_plan/perfect_tab_ver_6.html ]
Chorus: "Now we lost it all..."
e|--------------------------------------------------------------------
B|--------------------------------------------------------------------
G|-7-----4------------------------------------------------------------
D|-7--7--4--5---------------------------------------------------------
A|-5--7--2--5-------------------------------------------------- ------
E|----5-----3---------------------------------------------------------

Bridge: "Nothings gonna change the things that you said..."
e|--------------------------------------------------------------------
B|--------------------------------------------------------------------
G|-4--------- 4--------- 4--------------------------------------------
D|-4--7--5----4--7  5----4---7----5-----------------------------------
A|-2--7--5----2--7  5----2---7----5-----------------------------------
E|----5--3-------5--3--------5----3-----------------------------------


Ok people, this is my second try on my first tab, note the corrections from version 1, but
listen to the album for the strumming and number of times to strike the chord.  I think this
tab is pretty accurate now-Later on
Comments