Simple Plan - Perfect Chords & Tabs

 

Perfect Chords & Tabs

Simple Plan Chords & Tabs

Version: 4 Type: Tab 3 ratings
1 star 2 stars 3 stars 4 stars 5 stars
comments

Perfect Tab

   
song: perfect
artist: simple plan
submitted by: Eron Reyes
e-mail me: ejreyes37@yahoo.com

Intro:
    D        G          D         G
e-2------:-x------:-2---------:-x-------
b-3--2-3-:-x------:-3--2-3--5-:-x-------
g-2------:-0------:-2---------:-0-------
d-0------:-0--4-0-:-0---------:-0--4--0-
a--------:-2------:-----------:-2-------
e--------:-3------:-----------:-3-------

bass tab: (supposed to be power chords)
(fast)
e------------------------------
b------------------------------
g------------------------------
d------------------------------
a-5-5-5-5-7-7-7-10-10-9-9h10p9-
e------------------------------
(repeat that 3x then...)

e-------------------------------------
b-------------------------------------
g-------------------------------------
d-------------------------------------
a-5-5-5-5-7-7-7-10-10-9--12-12-10-9-5-
e-------------------------------------
[ Tab from: http://www.guitartabs.cc/tabs/s/simple_plan/perfect_tab_ver_4.html ]
D                  G
 hey dad look at me think back and talk to me
 did i grow up according to plan
 do you think im wasting my time doing things i wanna do
 but it hurts when you disapprove all along
        Bm                     G                      D        D
 and now i try hard to make it i just want to make you proud 
 i never gonna be good enough for you 
 i can't pretend that i'm alright and you can't change me
         (D)                     a                Bm             G
 cuz we lost it all and nothing lasts forever im sorry i cant be perfect
 now its just too late and we cant go back im sorry i cant be perfect
(repeat bass tab)
 (do stanza chords)
 i try not to think about the pain i feel inside did you know you used to be mt hero
 all the days you spent with me now seem so far away and it feels like you dont care anymore
 (do refrain chords)
 and now i try hard to make it i just want to make you proud
 i never gonna be good enough for you
 i cant stand another fight and nothings alright
(repeat chorus)
  Bm            G            D                   D
 nothings gonna change the things that you said
 and nothings gonna make this right again 
 please dont turn your back i cant beleive its hard just to talk to you
 cuz you dont understand
    D        G          D
e-2------:-x------:-2---------
b-3--2-3-:-x------:-3--2-3--5-
g-2------:-0------:-2---------
d-0------:-0--4-0-:-0---------        G
a--------:-2------:-----------
e--------:-3------:-----------
(repeat chorus 2x then break!)

END!

Comments