Simple Plan - Perfect Chords & Tabs

 

Perfect Chords & Tabs

Simple Plan Chords & Tabs

Version: 4 Type: Bass Tab 0 ratings
1 star 2 stars 3 stars 4 stars 5 stars
comments

Perfect Bass Tab

Ok this  only my second time submitin tabs but its a pretty kool intro.
( girls love it )_


G----7-6-9--54-0-|
D----------------|
A----------------|
E----------------|

----7-6-9------|
----------54-0-|
---------------|
---------------|

VERSE: (NO BASS)

Do you think...
G-------------------------|
D-------------------------|
A-------------------------|
D#---0--------------------|

Prechorus: And now I try...
G-------------------------|
D-------------------------|
A-------------------------|
D#-222--555-00-00000------|
I can't pretend...
G-------------------------|
D-------------------------|
A-------------------------|
D#-222--555-55-55555------|
And you can't change me...
G--------------------------|
D--6-4---------------------|
A-----4-3-2-1--------------|
D#------------0------------|

Chorus: Cuz we lost it all, nothing last forever
Sorry I can't be perfect
[ Tab from: http://www.guitartabs.cc/tabs/s/simple_plan/perfect_btab_ver_4.html ]
Now it's just too late
G-------------------------|
D-------------------------|
A-------------------------|
D#---0--------------------|
And we can't go back
G-------------------------|
D-------------------------|
A-------------------------|
D#---7--------------------|
Sorry I can't be
G-------------------------|
D-------------------------|
A-------------------------|
D#---9--------------------|
Perfect...
G-------------------------|
D-------------------------|
A-------------------------|
D#---5--------------------|
Intro Play again

VERSE 2: I try not to think... (check the times of the verse 2)
G-------------------------|
D-------------------------|
A-------------------------|
D#---0--------5-----------|

Prechorus Play again

Chorus 2: (same the times of the verse 1)

G-------------------------|
D-----8---10--------------|
A-------------------------|
D#--0---------------------|

Bridge: Nothing's gonna...
G-------------------------------|
D-------------------------------|
A----------------------------6--| Play 2 times
D#-5555555--7777777-000-xxxx----|

please don't turn...
G---------------------------------|
D---------------------------------|
A---------------------------------|
D#-99999999999-7777777777-555555--|

before chorus 3
G-------------------------|
D-------------------------|
A-------------------------|
D#-5555555----------------|

Chorus 3: Cuz we lost it all nothing last forever sorry I canīt be perfect
Now it's just too late, and we can't go back sorry I can't be perfect...
G-------------------------------|
D-------------------------------|
A-------------------------------|
D#-000000-777777-999999-555555--|

End on
G--------------------------|
D--------------------------|
A--------------------------|
D#---5---------------------|
Comments