Simple Plan - One Chords & Tabs

 

One Chords & Tabs

Simple Plan Chords & Tabs

Version: 1 Type: Tab 0 ratings
1 star 2 stars 3 stars 4 stars 5 stars
comments

One Tab

Simple Plan - One
This tab is good on acoustic guitar. Please rate it...this is the first time i tab a song...

INTRO
E |----------------------------------------||
B |----------------------------------------||
G |-6-6-6----------------------------------||                    (x2)
D |-6-6-6--6-6-6--5-5-5-5-5-5--5-7---------||
A |-4-4-4--6-6-6--5-5-5-5-5-5--5-7---------||
E |-----------4-4-4--3-3-3-3-3-3--3-5------||


VERSE
E |-------------------------------------------||
B |-------------------------------------------||
G |-6-6-6-6-6-6-------------------------------||                     (x2)
D |-6-6-6-6-6-6-5-5-5-5-5-5-------------------||
A |-4-4-4-4-4-4-5-5-5-5-5-5-------------------||
E |------------------3-3-3-3-3-3--------------||


PRE-CHORUS
E |-----------------------------------||
B |-----------------------------------||
G |-----------------------------------||
D |-9-9-9-7-7-7-5-5-5--5-7------------||
A |-9-9-9-7-7-7-5-5-5--5-7------------||
E |-7-7-7-5-5-5-3-3-3--3-5------------||

[ Tab from: http://www.guitartabs.cc/tabs/s/simple_plan/one_tab.html ]
CHORUS
E |----------------------------------------||
B |----------------------------------------||
G |-6-6-6----------------------------------||                    (x2)
D |-6-6-6--6-6-6--5-5-5-5-5-5--5-7---------||
A |-4-4-4--6-6-6--5-5-5-5-5-5--5-7---------||
E |-----------4-4-4--3-3-3-3-3-3--3-5------||


POST-CHORUS
E |----------------------------------------||
B |----------------------------------------||
G |-6-6-6-6-6-6----------------------------||
D |-6-6-6-6-6-6-5-5-5-5-5-5----------------||
A |-4-4-4-4-4-4-5-5-5-5-5-5----------------||
E |------------------3-3-3-3-3-3-----------||

BRIDGE
E |--------------------------------------------------------------------||
B |--------------------------------------------------------------------||
G |-6-6-6-6-6-6--------------------------------------------------------||
D |-6-6-6-6-6-6-5-5-5-5-5-5-4-4-4-4-4-4-5-5-5-5-5-5-4-4-4-4-4-4--------||
A |-4-4-4-4-4-4-5-5-5-5-5-5-4-4-4-4-4-4-5-5-5-5-5-5-4-4-4-4-4-4--------||
E |------------------3-3-3-3-3-3-2-2-2-2-2-2-3-3-3-3-3-3-2-2-2-2-2-2---||
(continue down here)
E |---------------||
B |---------------||
G |---------------||
D |-5-5-5-5-5-5---||
A |-5-5-5-5-5-5---|| repeat until chorus
E |-3-3-3-3-3-3---||


OUTRO
E |---------------------------------------||
B |---------------------------------------||
G |---------------------------------------||
D |-9-9-9-7-7-7-5-5-5--5-7--6-6-6---------||
A |-9-9-9-7-7-7-5-5-5--5-7--6-6-6---------||
E |-7-7-7-5-5-5-3-3-3--3-5--4-4-4---------||

INTRO
VERSE
PRE-CHORUS
CHORUS
POST-CHORUS
VERSE
PRE-CHORUS
CHORUS
BRIDGE
CHORUS
OUTRO

THE END!
thank you..
Comments