Simple Plan - One Day Chords & Tabs

 

One Day Chords & Tabs

Simple Plan Chords & Tabs

Version: 1 Type: Tab 3 ratings
1 star 2 stars 3 stars 4 stars 5 stars
comments

One Day Tab

ok, well this is my first tab, and i figured it out in the last 5 
minutes. It sounds close enough
-afrothunder

intro: X2

---------------------------------------------
------3h5p3--------------3h5p3---------------
---------------------------------------------
-----------------xx--------------------------
/5-5-------------xx-0-0------------0h3-3/5---
-------------3-3-xx------------3-3-----------

first part...X2
[ Tab from: http://www.guitartabs.cc/tabs/s/simple_plan/one_day_tab.html ]
---------------------------------------------
------3h5p3--------------3h5p3---------------
---------------------------------------------
-----------------xx--------------------------
/5-5-------------xx-0-0------------0h3-3/5---
-------------3-3-xx------------3-3-----------

chorus: 
----------------------|----------------------
----------------------|----------------------
7-7-------------------|-77xxxx---------------
7-7---5-5---7-7---5-5-|-77xxxx-55xxxx-77xxxx-55xxxx
5-5---5-5---7-7---5-5-|-55xxxx-55xxxx-77xxxx-55xxxx
------3-3---5-5---3-3-|--------33xxxx-55xxxx-33xxxx





Comments