Simple Plan - One Day Chords & Tabs

 

One Day Chords & Tabs

Simple Plan Chords & Tabs

Version: 1 Type: Bass Tab 0 ratings
1 star 2 stars 3 stars 4 stars 5 stars
comments

One Day Bass Tab

Bass Intro-
Simple plan 
One day
----(B)...Harry...(B)----


from the begining

|----3/7-77-7--------7---------7---77-|
|-------------55--77---55--7-9---9----|  
|-------------------------------------|
|-------------------------------------|
[ Tab from: http://www.guitartabs.cc/tabs/s/simple_plan/one_day_btab.html ]
|----3/7-77-7--------7---------7---77-|
|-------------55--77---55--7-9---9----|  
|-------------------------------------|
|-------------------------------------|

start singing
|--------------7--------7----|
|----------------55--77---55-|  x3
|----------------------------|
|----5/10-1010---------------|
Comments