Simple Plan - One By One Chords & Tabs

 

One By One Chords & Tabs

Simple Plan Chords & Tabs

Version: 1 Type: Tab 0 ratings
1 star 2 stars 3 stars 4 stars 5 stars
comments

One By One Tab

Tabbed by:matt henson
Email: riddlin_kid7@yahoo.co.uk

Tuning: Standard

hey guys,this is a really cool song, its not not on their album " no pads.." but
i recomend u try and find it,its jus simply awsome...this is also my first tab so
its probly not 100% accurate but still able to play along to, so any corrections
are welcome jus have a minimum of 9 swear words, thanx

INTRO
e|--------------------------------------------------------------------------|
B|--------------------------------------------------------------------------|
G|--------------------------------------------------------------------------|
D|--6-8-10-11-10--------------6-8-10-11-10-11-10---11-10---11-10------------|
A|---------------11--(x2)------------------------11------11-----11----------|
E|--------------------------------------------------------------------------|

Verse
e|---------------------------------------------------------------------------|
B|---------------------------------------------------------------------------|
G|---------------------------------------------------------------------------|
D|--6---------------6-------6--------6-----(keep picking chord way thru)-----|
A|--6-------------6---6---6----6---6---6-------------------------------------|
E|--4-----------4-------4--------4-------4-----------------------------------|
 (let ring)
[ Tab from: http://www.guitartabs.cc/tabs/s/simple_plan/one_by_one_tab.html ]
pre-chorus ..... and they used to say...
e|---------------------------------------------------------------------------|
B|---------------------------------------------------------------------------|
G|--66----------6666-8888-------66---------6666---8-8------------------------|
D|--66-x-66-x---6666-8888-------66-x-66-x--6666---8-8------------------------|
A|--44-x-66-x---4444-6666-------44-x-66-x--4444---6-6------------------------|
E|-----x-44-x----------------------x-44-x------------------------------------|
                                              ...change it!!
Chorus
e|---------------------------------------------------------------------------|
B|---------------------------------------------------------------------------|
G|-------6666------6666------------------------------------------------------|
D|--6666-4444-8888-6666----(x2)----------------------------------------------|
A|--6666-4444-8888-4444------------------------------------------------------|
E|--4444------6666-----------------------------------------------------------|
 
solo thing...
e|---------------------------------------------------------------------------|
B|---------------------------------------------------------------------------|
G|--10-8-6-5------------10-8-12-5--------------------------------------------|
D|-----------6---(x3)-------------6------------------------------------------|
A|---------------------------------------------------------------------------|
E|---------------------------------------------------------------------------|

 x - mute

 then play chorus a couple of times... 

pleeze rate it so i know what u guys think of my tabbin!

cool!! keepin the simple plan banner flyin in England!!!
Comments