Simple Plan - My Alien Chords & Tabs

 

My Alien Chords & Tabs

Simple Plan Chords & Tabs

Version: 2 Type: Tab 1 rating
1 star 2 stars 3 stars 4 stars 5 stars
comments

My Alien Tab

this is my first tab so.......i think its pretty damn close

intro

e---------------------------------------------------------------
B---------------------------------------------------------------
G---------------------------------------------------------------
D----------6------5-----6----------------6-------5-------6------
A-------6-----6------6------6--------6-------6-------6-------6--
E----4---------------------------4------------------------------

e---------------------------------------------------------------
B---------------------------------------------------------------
G----5-5-5-5-5-5-5-5-5-5-5-6-6-8-8--------------------5-3-5-3---  X2
D----5-5-5-5-5-5-5-5-5-5-5-6-6-8-8--6-6-6-6-6-6-6-6---5-3-5-3---
A----3-3-3-3-3-3-3-3-3-3-3-4-4-6-6--6-6-6-6-6-6-6-6---3-1-3-1---
E-----------------------------------4-4-4-4-4-4-4-4-------------

Verse
[ Tab from: http://www.guitartabs.cc/tabs/s/simple_plan/my_alien_tab_ver_2.html ]
e---------------------------------------------------------------
B---------------------------------------------------------------
G-----------6----8--------6---8----6----5-3-5-3-----------------
D-----6-----6----8----6---6---8----6----5-3-5-3-----------------
A-----6-----4----6----6---4---6----4----3-1-3-1-----------------
E-----4---------------4-----------------------------------------
        strum these three power chords (listen to song to figure out how many)
        (When the 3-5-5, 1-3-3 part comes up play each once)

Chorus


e--------------------------------
B--------------------------------
G--------6---8---6---------------      strum each (listen to song)
D----6---6---8---6---------------
A----6---4---6---4---------------
E----4---------------------------


play the power chord intro twice

verse

then some bridge, i just play chorus

chorus once

2nd bridge i just play G---6-----8-----
                       D---6-----8-----     play these (listen to song again!)
                       A---4-----6-----

chorus X 3

and thats it!

Comments