Simple Plan - Me Against The World Chords & Tabs

 

Me Against The World Chords & Tabs

Simple Plan Chords & Tabs

Version: 3 Type: Tab 0 ratings
1 star 2 stars 3 stars 4 stars 5 stars
comments

Me Against The World Tab

   
Title: Me against the world
Band: Simple Plan
Album: Still not getting any

Tuning: **tuned down a half step**

Intro: repeat 2x

e|---------------------------------------------------------------------|
B|---------------------------------------------------------------------|
G|----------------7/---9-------7/--9---------7/--9--------9/--12\-9----|
D|---------------------------------------------------------------------|
A|--------2-------5/---7---2---5/--7----5----5/--7----7---7/--10\-7----|
E|---12\--0----------------0------------3-------------5----------------|

Verse: repeat 2x
Guitar 1

e|---------------------------------|
B|---------------------------------|
G|---------------------------------|
D|----9-----5---------7------------|
A|----7-----3----5----5------------|
E|---------------3-----------------|

Guitar 2: * Let notes ring * listen for timing :repeat once
e|------------------------------------------------|
B|------------------------------------------------|
G|-------------0--------------------0-------------|
D|---------4---------------------4----------------|
A|-----2----------------------5-------------------|
E|--0----------------------3----------------------|

PreChorus: Same as Intro,repeat once
[ Tab from: http://www.guitartabs.cc/tabs/s/simple_plan/me_against_the_world_tab_ver_3.html ]
Chorus:   Repeat 2x           End with
e|---------------------|----------------------|
B|---------------------|----------------------|
G|--------------------.|----------------------|
D|---9----5--------7--.|-----5-----7----------|
A|---7----3---5----5---|-----3-----5----------|
E|------------3--------|----------------------|

Guitar 2:
After chorus: repeat intro 2x on 2nd time add (using a cry baby)
e|------------------------------------------------|
B|------12-----8-----9-----7----6----5------------|
G|------14b---10b---11b----9b---8b---7b-----------|
D|------------------------------------------------|
A|------------------------------------------------|
E|------------------------------------------------|

Verse
PreChorus
Chours

Bridge:  Am      D     Em
e|-------1-------2------------------|
B|-------2-------3------------------|
G|-------2-------2-----0------------|
D|-------0-------0-----2------------|
A|---------------------2--------2---|
E|---------------------0--------0---|

Solo:  repeat this twice       then
e|-------------------------|----------------------------------|
B|------7-----6------3---.-|------6-----7-------10------12----|
G|------9b----8b-----5b----|------8b----9b------12b-----14b---|
D|-----------------------.-|----------------------------------|
A|-------------------------|----------------------------------|
E|-------------------------|----------------------------------|

Chours: repeat 3x then:
e|--------------------------------------|
B|--------------------------------------|
G|--------------------------------------|
D|----9----5-------7----5---7---9-------|
A|----7----3---5---5----3---5---7-------|
E|-------------3------------------------|

That should do it, Enjoy!

/ slide up
\ slide down
b bend
:| repeat
Comments