Simple Plan - Im Just A Kid Chords & Tabs

 

Im Just A Kid Chords & Tabs

Simple Plan Chords & Tabs

Version: 2 Type: Tab 7 ratings
1 star 2 stars 3 stars 4 stars 5 stars
comments

Im Just A Kid Tab

   
  
I'm Just a Kid
Performed by: Simple Plan
Trnscribed by: Walter Michael De la Cruz- "The Twisted Illusion"

Notes: This song rocks...i always hear this song in the radio..but i used the Key of D when i guitar this song..
       coz that was more easier..but it is 1/2 key higher...so this is what i tab..this is the correct version..just enjoy!!
 



You just repeat the stanza chords over and over again
Key of D

I woke up it was 7...Another night all alone ...  When you're spending everyday on your own.     
e  ---------------------------------------------------------------------------------------------------
B  ---------------------------------------------------------------------------------------------------
G  --------6--------------------------6--------------------------6------------------------------6-----
D  -----6-----6---------------------6--6----------------------6-----6-------------------------6---6---
A  --4------------------------------------------------------------------------------------------------
D  ------------------------------6-------------------------4------------------------------6-----------
     C#                         G#                         F#                             G#


Chorus
e  ---------------------------------------------------------------------------------------------------
B  ---------------------------------------------------------------------------------------------------
G  --6-------------------------------------------6----------------------------------------------------
D  --6-------4---------6---------4---------------6--------4----------6----------------4---------------
A  --4-------4---------6---------4---------------4--------4----------6----------------4---------------
E  ----------4---------6---------4------------------------4----------6----------------4---------------
     C#      F#        G#       F#              C#        F#         G#               F#    (WITH DISTORTION)
  I'm just a kid, and life is nightmare, I'm just a kid, i know that its not fair.


e  ---------------------------------------------------------------------------------------------------
B  ---------------------------------------------------------------------------------------------------
G  --8---------------------------------------------------------------8--------------------------------
D  --8-------------------------------4-------------------6-----------8--------------4----------6------
A  --6-------------------------------4-------------------6-----------6--------------4----------6------
E  ----------------------------------4-------------------6--------------------------4----------6------
     D#                              F#                  G#          D#             F#     -   G#
    Nobody cares, cause I'm alone and the world is, having more fun than me


  Verse 2
   Same as Verse one, just palm mute the A and the D chords on the C# chord

  Bridge
[ Tab from: http://www.guitartabs.cc/tabs/s/simple_plan/im_just_a_kid_tab_ver_2.html ]
e  ---------------------------------------------------------------------------------------------------
B  ---------------------------------------------------------------------------------------------------
G  ------------------------------------------------------------------6--------------------------------
D  -4----------------------------------6-----------------------------6---------------------6----4-----
A  -4----------------------------------6-----------------------------4---------------------6----4-----
E  -4----------------------------------6---------------------------------------------------6----4-----
    F#                                 G#                            C#                    G#   F#
  What the fuck is wrong with me, don't fit in with anybody, how did this happen to me?
e  ---------------------------------------------------------------------------------------------------
B  ---------------------------------------------------------------------------------------------------
G  -----------------------------------------------------------6---------------------------------------
D  --4---------------------------------6----------------------6--------------4-------------6----------
A  --4---------------------------------6----------------------4--------------4-------------6----------
E  --4---------------------------------6-------------------------------------4-------------6----------
     F#                                G#                     C#             F#            G#
    Wide awake I'm bored and I can't fall asleep.   And every night is the worst night ever


 Repeat Verse Chords



    C#           F#       G#       F#
I woke up it was 7,  I Waited till 11 
just to figure out that no one would call 
I think i got a lot of friends but I don't hear from them 
What's another night all alone? 
             D#          F#         G#
When your spending everyday on you own 
and here it goes... 

[CHORUS] (with distortion)
 C#        F#        G#        F#  
I'm just a kid and life is a nightmare 
I'm just a kid, I know that its not fair
D#        F#              C#            G#
Nobody cares, cause I'm alone and the world is 
D#           F#       G#
having more fun then me 
   C#(continue with verse 1)
Tonight..


          C#                 F#         G#           F# ) --->Palm mute
And maybe when the night is dead, i'll crawl into my bed 
Staring at these 4 walls again 
I'll try to think about the last time, I had good time 
Everyone's got somewhere to go 
           D#              F#        G#  
And their gonna leave me here on my own 
and here it goes..

[REPEAT CHORUS]

Bridge (not yet figure out the chords is):
What the fuck is wrong with me? 
don't fit in with anybody 
How did this happen to me? 
Wide awake I'm bored and I can't fall asleep 
cause every night is the worst night ever 

Fill with verse 1:
I'm just a kid [repeat 5X]

[CHORUS (repeat 2X)]

I'm all alone tonight 
Nobody cares tonight 
Cause im just a kid tonight


Comments, question, or critics??? mail me at Walterfdelacruz@yahoo.com
You can also invite me in friendster or myspace
Thanks
Comments