Simple Plan - Id Do Anything Chords & Tabs

 

Id Do Anything Chords & Tabs

Simple Plan Chords & Tabs

Version: 8 Type: Tab 0 ratings
1 star 2 stars 3 stars 4 stars 5 stars
comments

Id Do Anything Tab

Intro

e[------------------------[-------------]
b[------------------------[-------------]
g[------------------------[-------------]
D[----3---6------5---8----[--66666------]
A[--4----------6----------[--66666------]
E[------------------------[--44444------]

Verse

e[---------------------------------------------]
b[---------------------------------------------]
g[---------------------------------------------]
D[----6-5h-6----6 5h 6---3--6-5h-6-------------]
A[---------------------------------------------]
E[--4---------3--------------------------------]

e[------------------------]
b[------------------------]
g[------------------------]
D[----3---6------5---8----]
A[--4----------6----------]
E[------------------------]


Pre Chorus
[ Tab from: http://www.guitartabs.cc/tabs/s/simple_plan/id_do_anything_tab_ver_8.html ]
e[-----------------------------------------]
b[-----------------------------------------]
g[-----------------------------------------]
D[---6-5h-6---6-5h-6---6-5h-6---5-5-6-8----]
A[----------3--------4--------6------------]
E[-8---------------------------------------]


Chorus

e[-----------------------------------]
b[-----------------------------------]
g[-66------------8888888-------------]
D[-66--66666666--8888888--33333------]
A[-44--66666666--6666666--33333------]
E[-----44444444-----------11111------]


e[----------------------------------------]
b[----------------------------------------]
g[-6666666------------8888888-------------]
D[-6644444--66666666--8888888--33333------]
A[-4444444--66666666--6666666--33333------]
E[----------44444444-----------11111------]

End chorus

E[----------------------]
B[----------------------]
G[-6--------------------]
D[-6----3--6----5--8----]
A[-4--4-------6---------]
D[----------------------]

Outro
 
E[-----------------------]
B[-----------------------]
G[--6--------------------]
D[--6-----3-6----5--8--6-]
A[--4---4------6-------6-]
D[---------------------6-]


ORDER
INTRO x2
END INTRO x1
VERSE x4
PRE-CHORUS x1
CHORUS x4
END CHORUS x1
VERSE x4
PRE-CHORUS x2
CHORUS X4
BRIDGE
CHORUS x8
OUTRO x1


STR
Comments