Simple Plan - Id Do Anything Chords & Tabs

 

Id Do Anything Chords & Tabs

Simple Plan Chords & Tabs

Version: 4 Type: Tab 0 ratings
1 star 2 stars 3 stars 4 stars 5 stars
comments

Id Do Anything Tab

   
SIMPLE PLAN
"I'D DO ANYTHING"
TUNED DOWN TO:  D,A,D,G,B,E
TABBED BY: JUSTIN ZOLTEK from PLAN 2 

~ = let note ring
h  = Hammer On
pm. . = Palm Mute

INTRO 
--------------|---------------|
--------------|---------------|
--------------|---------------|
----5-6---7-8-|-6-6-6-6-6-6-6-|    x2
--4-----6-----|-6-6-6-6-6-6-6-|
--------------|-6-6-6-6-6-6-6-|
                  pm. .      

END INTRO WITH THIS
--------------|
--------------|
--------------|    
----5-6---7-8-|      x1
--4-----6-----|
--------------|

VERSE
----------|----------|---------|----------|
----------|----------|---------|----------|
----------|----------|---------|----------|
---6-5h-6-|--6-5h-6--|3-6-5h-6-|-5-6--7-8-|    x4
----------|----------|---------|4----6----|
-6--------|5---------|---------|----------|
   Another day i going by...

PRE-CHORUS
----------------------------------|
----------------------------------|
----------------------------------|
--6-5h-6--6-5h-6--6-5h-6--5-5-6-8-|   x 1
---------3-------4-------6--------|
-8--------------------------------|

CHORUS
-----|---------------------------------------------------|
-----|---------------------------------------------------|
-6-6-|---------------------------------------6-6-6-6-6-6-|
-6-6-|-6-6-6-6-6-6-6-1-1-1-1-1-1-3-3-3-3-3-3-6-6-6-6-6-6-|
-4-4-|-6-6-6-6-6-6-6-1-1-1-1-1-1-3-3-3-3-3-3-4-4-4-4-4-4-|
-----|-6-6-6-6-6-6-6-1-1-1-1-1-1-3-3-3-3-3-3-------------|

---------------------------------------|
---------------------------------------|
---------------------------------------|
-6-6-6-6-6-6-6-1-1-1-1-1-1-3-3-3-3-3-3-|
-6-6-6-6-6-6-6-1-1-1-1-1-1-3-3-3-3-3-3-|
-6-6-6-6-6-6-6-1-1-1-1-1-1-3-3-3-3-3-3-|

-----|---------------------------------------------------|
-----|---------------------------------------------------|
-6-6-|---------------------------------------6-6-6-6-6-6-|
-6-6-|-6-6-6-6-6-6-6-1-1-1-1-1-1-3-3-3-3-3-3-6-6-6-6-6-6-|
-4-4-|-6-6-6-6-6-6-6-1-1-1-1-1-1-3-3-3-3-3-3-4-4-4-4-4-4-|
-----|-6-6-6-6-6-6-6-1-1-1-1-1-1-3-3-3-3-3-3-------------|

---------------------------------------|
---------------------------------------|
---------------------------------------|
-6-6-6-6-6-6-6-1-1-1-1-1-1-3-3-3-3-3-3-|
-6-6-6-6-6-6-6-1-1-1-1-1-1-3-3-3-3-3-3-|
-6-6-6-6-6-6-6-1-1-1-1-1-1-3-3-3-3-3-3-|

END CHORUS WITH

----|----------|
----|----------|
----|----------| 
-6~-|--5-6--7-8|  x1 
-6~-|-4----6---|     
-4~-|----------|

VERSE
----------|----------|---------|----------|
----------|----------|---------|----------|
----------|----------|---------|----------|
---6-5h-6-|--6-5h-6--|3-6-5h-6-|-5-6--7-8-|    x4
----------|----------|---------|4----6----|
-6--------|5---------|---------|----------|
   
PRE CHORUS
---------|--------|--------|---------|
---------|--------|--------|---------|
---------|--------|--------|---------|
--6-5h-6-|-6-5h-6-|-6-5h-6-|-6-6-5-3-|   
---------|3-------|4-------|6--------|
-8-------|--------|--------|---------|

---------|--------|---------------------------|
---------|--------|---------------------------|
---------|--------|-8-8-8-8-8-8-8-8-----------|
--6-5h-6-|5-6-5h-6|-8-8-8-8-8-8-8-8-5-5-6-6-8-|   
---------|3-------|-6-6-6-6-6-6-6-6-----------|
-8-------|--------|---------------------------|

CHORUS
-----|---------------------------------------------------|
-----|---------------------------------------------------|
-6-6-|---------------------------------------6-6-6-6-6-6-|
-6-6-|-6-6-6-6-6-6-6-1-1-1-1-1-1-3-3-3-3-3-3-6-6-6-6-6-6-|
-4-4-|-6-6-6-6-6-6-6-1-1-1-1-1-1-3-3-3-3-3-3-4-4-4-4-4-4-|
-----|-6-6-6-6-6-6-6-1-1-1-1-1-1-3-3-3-3-3-3-------------|

---------------------------------------|
---------------------------------------|
---------------------------------------|
-6-6-6-6-6-6-6-1-1-1-1-1-1-3-3-3-3-3-3-|
-6-6-6-6-6-6-6-1-1-1-1-1-1-3-3-3-3-3-3-|
-6-6-6-6-6-6-6-1-1-1-1-1-1-3-3-3-3-3-3-|
[ Tab from: http://www.guitartabs.cc/tabs/s/simple_plan/id_do_anything_tab_ver_4.html ]
-----|---------------------------------------------------|
-----|---------------------------------------------------|
-6-6-|---------------------------------------6-6-6-6-6-6-|
-6-6-|-6-6-6-6-6-6-6-1-1-1-1-1-1-3-3-3-3-3-3-6-6-6-6-6-6-|
-4-4-|-6-6-6-6-6-6-6-1-1-1-1-1-1-3-3-3-3-3-3-4-4-4-4-4-4-|
-----|-6-6-6-6-6-6-6-1-1-1-1-1-1-3-3-3-3-3-3-------------|

---------------------------------------|
---------------------------------------|
---------------------------------------|
-6-6-6-6-6-6-6-1-1-1-1-1-1-3-3-3-3-3-3-|
-6-6-6-6-6-6-6-1-1-1-1-1-1-3-3-3-3-3-3-|
-6-6-6-6-6-6-6-1-1-1-1-1-1-3-3-3-3-3-3-|

ENDS CHORUS/BEGINS BRIDE
----|
----|
----|  Note is hit at the end of the chorus and is held for 
-6~-|  a couple of seconds fading away fairly quick, and
-6~-|  going into the bride.
-4~-|

BRIDE/INTERLUDE

---------|-------------|---------|--------------|
---------|-------------|---------|--------------|  
---------|-------------|---------|----------5---|  
-6-5-6---|-5-6-5-6-5-3-|-6-5-6---|-5-6-5-6-8----|
---------|-------------|---------|--------------|
-------6-|-------------|-------6-|--------------|

---------|-------------|---------|
---------|-------------|---------|
---------|-------------|---------|
-6-5-6---|-5-6-5-6-5-3-|-6-5-6---|
---------|-------------|---------|
------6--|-------------|------6--|

END BRIDE WITH
--------------------------|
--------------------------|
--------------------------|
-1~-1-1-1~-1-1-1~-1-1-1-1-|
-1~-1-1-1~-1-1-1~-1-1-1-1-|
-1~-1-1-1~-1-1-1~-1-1-1-1-|

CHORUS
-----|---------------------------------------------------|
-----|---------------------------------------------------|
-6-6-|---------------------------------------6-6-6-6-6-6-|
-6-6-|-6-6-6-6-6-6-6-1-1-1-1-1-1-3-3-3-3-3-3-6-6-6-6-6-6-|
-4-4-|-6-6-6-6-6-6-6-1-1-1-1-1-1-3-3-3-3-3-3-4-4-4-4-4-4-|
-----|-6-6-6-6-6-6-6-1-1-1-1-1-1-3-3-3-3-3-3-------------|

---------------------------------------|---------------
---------------------------------------|---------------
---------------------------------------|-6-6-6-6-6-6---
-6-6-6-6-6-6-6-1-1-1-1-1-1-3-3-3-3-3-3-|-6-6-6-6-6-6---
-6-6-6-6-6-6-6-1-1-1-1-1-1-3-3-3-3-3-3-|-4-4-4-4-4-4---
-6-6-6-6-6-6-6-1-1-1-1-1-1-3-3-3-3-3-3-|---------------

---------------------------------------------------|
---------------------------------------------------|
---------------------------------------6-6-6-6-6-6-|
-6-6-6-6-6-6-6-1-1-1-1-1-1-3-3-3-3-3-3-6-6-6-6-6-6-|
-6-6-6-6-6-6-6-1-1-1-1-1-1-3-3-3-3-3-3-4-4-4-4-4-4-|
-6-6-6-6-6-6-6-1-1-1-1-1-1-3-3-3-3-3-3-------------|

---------------------------------------|--------------
---------------------------------------|--------------
---------------------------------------|-6-6-6-6-6-6--
-6-6-6-6-6-6-6-1-1-1-1-1-1-3-3-3-3-3-3-|-6-6-6-6-6-6--
-6-6-6-6-6-6-6-1-1-1-1-1-1-3-3-3-3-3-3-|-4-4-4-4-4-4--
-6-6-6-6-6-6-6-1-1-1-1-1-1-3-3-3-3-3-3-|--------------

---------------------------------------------------|
---------------------------------------------------|
---------------------------------------6-6-6-6-6-6-|
-6-6-6-6-6-6-6-1-1-1-1-1-1-3-3-3-3-3-3-6-6-6-6-6-6-|
-6-6-6-6-6-6-6-1-1-1-1-1-1-3-3-3-3-3-3-4-4-4-4-4-4-|
-6-6-6-6-6-6-6-1-1-1-1-1-1-3-3-3-3-3-3-------------|

---------------------------------------|--------------
---------------------------------------|--------------
---------------------------------------|-6-6-6-6-6-6--
-6-6-6-6-6-6-6-1-1-1-1-1-1-3-3-3-3-3-3-|-6-6-6-6-6-6--
-6-6-6-6-6-6-6-1-1-1-1-1-1-3-3-3-3-3-3-|-4-4-4-4-4-4--
-6-6-6-6-6-6-6-1-1-1-1-1-1-3-3-3-3-3-3-|--------------

---------------------------------------|--------------
---------------------------------------|--------------
---------------------------------------|-6-6-6-6-6-6--
-6-6-6-6-6-6-6-1-1-1-1-1-1-3-3-3-3-3-3-|-6-6-6-6-6-6--
-6-6-6-6-6-6-6-1-1-1-1-1-1-3-3-3-3-3-3-|-4-4-4-4-4-4--
-6-6-6-6-6-6-6-1-1-1-1-1-1-3-3-3-3-3-3-|--------------

---------------------------------------|
---------------------------------------|
---------------------------------------|
-6-6-6-6-6-6-6-1-1-1-1-1-1-3-3-3-3-3-3-|
-6-6-6-6-6-6-6-1-1-1-1-1-1-3-3-3-3-3-3-|
-6-6-6-6-6-6-6-1-1-1-1-1-1-3-3-3-3-3-3-|

OUTRO

----|-----------|----|
----|-----------|----|
-6~-|-----------|----|
-6~-|--5-6--7-8-|-6\-|   x1
-4~-|-4----6----|-6\-|
----|-----------|-6\-|

ORDER
INTRO x2
END INTRO x1
VERSE x4
PRE-CHORUS x1
CHORUS x4
END CHORUS x1
VERSE x4
PRE-CHORUS x2
CHORUS X4
BRIDGE
CHORUS x8
OUTRO x1

Hey, give me an e-mail and let me know what you thought if my job, this is the first time 
i've tabbed a song, thanx later, hope you enjoy!
Comments