Simple Plan - Id Do Anything Chords & Tabs

 

Id Do Anything Chords & Tabs

Simple Plan Chords & Tabs

Version: 2 Type: Tab 5 ratings
1 star 2 stars 3 stars 4 stars 5 stars
comments

Id Do Anything Tab

   
----------------------------/----------------------------------------
----------------------------/----------------------------------------
----------------------------/-------4-7-----6--9---------------------
-4-7----6-9--2--------------/-----5------7---------------------------
5---7--------0--0-0-0-0-0-0-/----------------------------------------
            2X
---------------------------------------------------------------------
---------------------------------------------------------------------
--2-----2-1-2----2-1-2------2-1-2------------------------------------
--0--0-------------------4------------4--7-----6-9-------------------
--------------4--------------------5-------5-------------------------
---------------------------------------------------------------------

--2------------------------------0 +2X ---0--0--0--------------------
--3------------------------------0--------0--0--0--------------------
--4--2-1-2--2--2-1-2--2--2-1-2---1--------2--2--1--------------------
--4---------2---------0----------2-----------------------------------
------------4--------------------2-----------------------------------
---------------------------------0-----------------------------------
 Bm         A/C#      D          E        E sus


 thats it! enjoy!  the ending does the intro again.
[ Tab from: http://www.guitartabs.cc/tabs/s/simple_plan/id_do_anything_tab_ver_2.html ]
Comments