Simple Plan - Id Do Anything Live Chords & Tabs

 

Id Do Anything Live Chords & Tabs

Simple Plan Chords & Tabs

Version: 1 Type: Bass Tab

Id Do Anything Live Bass Tab

   
you can find the live version on the hard rock live thing or a small package for you cd
download it.this can also be used for the album version and the acoustic version David
half step down

intro- 3x's
g-------------------------------------|
d---4-7---6-9-------------------------|
a--5-----7----0000000000--------------|
e-------------------------------------|

verse-first part is guitar only then

g--------------------------------------------|
d---4-7---6-9--------------------------------|
a--5-----7----0000000000---------------------|
e-----------------------4444444444-222222222-|

then

g-----------------------------------------------|
d-----------------------------------------------|
a-2222222-44444444-55555555555-77777777777------|
e-----------------------------------------------|

chorus-

g---------------------------------------------------------------------------|
d---------------------------------------------------------------------------|
a--55--00000000------------------------5555555-000000000-----------------55-|
e--------------0000000000-22222222222--------------------00000000-2222222---|

after chorus u hit that before the verse
g-----------|
d-----------|
a-5---------|
e-----------|
[ Tab from: http://www.guitartabs.cc/tabs/s/simple_plan/id_do_anything_live_btab.html ]
verse
g-------------------------------------------|
d----------------------------------4-7--6-9-|
a--0000000000---------------------5----7----|
e------------4444444444-222222222-----------|

pre chorus thing
g---------------------------------------------------------------------------|
d---------------------------------------------------------------------------|
a-2222222-44444444-55555555555-77777777777-5-4-22222222-4444444-55555-77777-|
e---------------------------------------------------------------------------|

chorus-

g---------------------------------------------------------------------------|
d---------------------------------------------------------------------------|
a--55--00000000------------------------5555555-000000000-----------------55-|
e--------------0000000000-22222222222--------------------00000000-2222222---|

then hit
g-----------------|
d-----------------|
a-5~--------------|
e-----------------|

David sings then when the na nana comes up play

g-----------------------------|
d-----------------------------|
a--5--0--7--9--11--12---------|
e-----------------------------|

g-----------------------------|
d-----------------------------|
a--5--0--777777777777--55-----|
e-----------------------------|
you can play this but this is wat i like 2 play

g-------------------------------------|
d---------------666666-999999-9-6-----|
a--5--0--777777------------------7-55-|
e-------------------------------------|

then play chorus i don't have the solo yet but im working on it.. Peace