Simple Plan - Id Do Anything Chords & Tabs

 

Id Do Anything Chords & Tabs

Simple Plan Chords & Tabs

Version: 3 Type: Bass Tab 0 ratings
1 star 2 stars 3 stars 4 stars 5 stars
comments

Id Do Anything Bass Tab

hello, not sure how right this tab, especially the ending so live with it =P

tuning: drop down one note for each string

~ means rest

|-----------------------------------------|
|-----4--7------6--9----------------------|
|--5---------7----------0---0-0-0-0-0-0---|
|-----------------------------------------| repeat 3x (3rd time don't play the last 6 open notes.)

Rest

Then start playing this at 0:17
|-------------------|
|-----4-7------6-9--|
|--5--------7-------|
|-------------------|

Verse (2x)
|---------------------------------------------------------|
|---------------------------------------------4-7-----6-9-|
|------------------------------------------5-------7------|
|--5-5-5-5-5-5--4-4-4-4-4-4--2-2-2-2-2-2------------------|

(1x)
|-------------------------------------------------------|
|-------------------------------------------------------|
|--2-2-2-2-2-2--4-4-4-4-4-4--5-5-5-5-5-5--7-7-7-7-7-7-7-|
|-------------------------------------------------------|
[ Tab from: http://www.guitartabs.cc/tabs/s/simple_plan/id_do_anything_btab_ver_3.html ]
Chorus  (2x)
|---------------------------------------------------------------|
|---------------------------------------------------------------|
|--5-5--~-------------------------------------------5-5-5-5-5-5-|
|---------5-5-5-5-5-5-5--0-0-0-0-0-0--2-2-2-2-2-2---------------|

|---------------------------------------------------------|
|---------------------------------------------------------|
|-------------------------------------------5-5-5-5-5-5-5-|
|--5-5-5-5-5-5--0-0-0-0-0-0--2-2-2-2-2-2-2----------------|


Verse 2
|-------------------|
|-----4-7------6-9--|
|--5--------7-------|
|-------------------|

(2x)
|---------------------------------------------------------|
|---------------------------------------------4-7-----6-9-|
|------------------------------------------5-------7------|
|--5-5-5-5-5-5--4-4-4-4-4-4--2-2-2-2-2-2------------------|

(1x)
|-------------------------------------------------------|
|-------------------------------------------------------|
|--2-2-2-2-2-2--4-4-4-4-4-4--7-7-7-7-7-7-7--------------|
|-------------------------------------------------------|

Play Chorus 2x

Rest while Mark sings..then start to play this at 2:12

|------------|
|------------|
|--5---------|
|-----5-0-2--|

Chorus 3x  


My e-mail's im_such_a_kinky_babe@hotmail.com...feel free to drop me a line. 




Comments