Simple Plan - God Must Hate Me Chords & Tabs

 

God Must Hate Me Chords & Tabs

Simple Plan Chords & Tabs

Version: 1 Type: Tab 4 ratings
1 star 2 stars 3 stars 4 stars 5 stars
comments

God Must Hate Me Tab

(Standard Tuning)

Intro lead guitar

-------------------------------------------------------
-------------------------------------------------------
-----13--15--18-18-18-17-15---13--15--17-17-17-17-17-17
-------13--13-------------------13--13----------------- x2
-------------------------------------------------------
-------------------------------------------------------

Intro rhythm guitar
[ Tab from: http://www.guitartabs.cc/tabs/s/simple_plan/god_must_hate_me_tab.html ]
-------------------------------------------------------
-------------------------------------------------------
----4---6---9-9-9-8-6---4---6---8-8-8-8-8-8------------
----4-4-6-4-9-9-9-8-6---4-4-6-4-8-8-8-8-8-8------------ x2
----2-4-4-4-7-7-7-6-4---2-4-4-4-6-6-6-6-6-6------------
------2---2---------------2---2------------------------

the verse is just bass and the prechorus I dunno

the chorus is just like the intro but with no lead and get the timing and stuff right for yourself, this is a darn
good guideline (the chorus is Basically the same as the intro but the
first part is repeated twice
Enjoy, this is a great album
Comments