Simple Plan - Everytime Chords & Tabs

 

Everytime Chords & Tabs

Simple Plan Chords & Tabs

Version: 1 Type: Tab 0 ratings
1 star 2 stars 3 stars 4 stars 5 stars
comments

Everytime Tab

   
----------------------------------------------------------------------------
	                  EVERYTIME - Simple Plan
----------------------------------------------------------------------------
Tabbed by: DJ Skorpion (Joseph Goh)
Email: dj.skorpion@gmail.com

Tuning: EADGBE

This should be basically what it sounds like... The key i start/end with could be wrong 
Corrections are welcomed of coz... The rhythm is not there so just get the CD and listen 
it for the correct timings! There're some variations here and there by the way but
they're hardly audible. You can play this live and no one will know the difference :P.

Intro - w/ Wahwah + some bending
e|-------------------------------------------------------------------------|
B|-------------------------------------------------------------------------|
G|-------------------------------------------------------------------------|
D|-------------------------------------------------------------------------|
A|-6^6^6^6^6^6^6^6^6^6^6^6^6^6^6^6^6^6^6^6^6^6^6^6^6^6^6^6^6^6^6^6^6^6^6^--|
E|-------------------------------------------------------------------------|

Verse 1 (Voice starts)
^^^^^^^^^^^^^^^^^^^^^^
Play Guitar 1 & 2 & 3 for the 1st time.
The 2nd time, play only Guitar 1 & 2 & 4
Guitar1 - consistent
Guitar2 - consistent
Guitar3 - play each slide up at the end of each chord change
Guitar4 - keep hammering on 6 till e last 2 hammer-ons, you play 8

Guitar 1 - Electric (Wahwah + bends)
e|-------------------------------------------------------------------------|
B|-------------------------------------------------------------------------|
G|-------------------------------------------------------------------------|
D|-------------------------------------------------------------------------|
A|-6^-x16------------------------------------------------------------------|
E|---------8^-x16--4^-x16--6^-x16------------------------------------------|
Guitar 2 - Acoustic (Clean)
e|-------------------------------------------------------------------------|
B|-------------------------------------------------------------------------|
G|-8-----------------------------------------------------------------------|
D|-8-x16--10------6------8-------------------------------------------------|
A|-6------10-x16--6-x16--8-x16---------------------------------------------|
E|--------8-------4------6-------------------------------------------------|
Guitar 3 - Electric (Distortion)
e|-------------------------------------------------------------------------|
B|-------------------------------------------------------------------------|
G|-------------------------------------------------------------------------|
D|-------------------------------------------------------------------------|
A|-4/6---------------------------------------------------------------------|
E|------6/8--2/4--4/6------------------------------------------------------|
Guitar 4 - Electric (Clean)
e|-------------------------------------------------------------------------|
B|-------------------------------------------------------------------------|
G|-------------------------------------------------------------------------|
D|-------------------------------------------------------------------------|
A|-h6--h6--h6--h6--h6--h6--h6--h6--h6--h6--h6--h6--h6--h6--h6--h6----------|
E|-----------------------------------------------------------------h8--h8--|

Chorus
^^^^^^
Play this section 2 times.
Guitar1 - consistent
Guitar2 - hammer-on each note as needed
Guitar3 - play part 1 for the 1st 2 times you play the full chorus, play part 2 on the 
time just before the solo
[ Tab from: http://www.guitartabs.cc/tabs/s/simple_plan/everytime_tab.html ]
Guitar 1 - Electric (Distortion)
e|-------------------------------------------------------------------------|
B|-------------------------------------------------------------------------|
G|-8-----------------------------------------------------------------------|
D|-8-x16--10------6------8-----8~~~~~--------------------------------------|
A|-6------10-x16--6-x16--8-x15-8~~~~~-(Fade off on 2nd play)---------------|
E|--------8-------4------6-----6~~~~~--------------------------------------|
Guitar 2 - Electric (Clean)
e|-------------------------------------------------------------------------|
B|-------------------------------------------------------------------------|
G|-------------------------------------------------------------------------|
D|-------------------------------------------------------------------------|
A|-h6--h6--h6--h6----------------------------------------------------------|
E|-----------------h8--h8--h8--h8--h4--h4--h4--h4--h6--h6--h6--h6----------|
Guitar 3 - Electric (Distortion) - Part 1
e|-------------------------------------------------------------------------|
B|-------------------------------------------------------------------------|
G|-------------------------------------------------------------------------|
D|-8~~~--------------------------------------------------------------------|
A|-8~~~-(Fade off on 2nd play)---------------------------------------------|
E|-6~~~--------------------------------------------------------------------|
Guitar 3 - Electric (Distortion) - Part 2
e|-------------------------------------------------------------------------|
B|-------------------------------------------------------------------------|
G|-------------------------------------------------------------------------|
D|-4-----6-----------------------------------------------------------------|
A|-4-x8--6-x8--------------------------------------------------------------|
E|-2-----4-----------------------------------------------------------------|

Verse 2
^^^^^^^
Play guitar 1 & 2 for the 1st time.
Play guitar 1 & 2 & 3 for the 2nd time.
Guitar1 - consistent
Guitar2 - consistent (this part maybe wrong, you may need to pick it)
Guitar3 - hear it for the rhythm!
Guitar 1 - Electric (Distortion)
e|-------------------------------------------------------------------------|
B|-------------------------------------------------------------------------|
G|-------------------------------------------------------------------------|
D|-------------------------------------------------------------------------|
A|-4-66--------------------------------------------------------------------|
E|-------6-88--2-44--4-66--------------------------------------------------|
Guitar 2 - Electric (Clean)
e|-------------------------------------------------------------------------|
B|-------------------------------------------------------------------------|
G|-------------------------------------------------------------------------|
D|-------------------------------------------------------------------------|
A|-h6--h6--h6--h6----------------------------------------------------------|
E|-----------------h8--h8--h8--h8--h4--h4--h4--h4--h6--h6--h6--h6----------|
Guitar 3- Electric (Distortion)
e|-------------------------------------------------------------------------|
B|-------------------------------------------------------------------------|
G|-------------------------------------------------------------------------|
D|-88--88-88-8-------------------------------------------------------------|
A|-66--66-66-6--1010--1010-1010-10--66--66-66-6--88--88-88-8---------------|
E|--------------8-8---8-8--8-8--8---44--44-44-4--66--66-66-6---------------|

Solo
^^^^
Sounds like an effect has been added. Not sure though.
Guitar1 - consistent
Guitar2 - consistent

Guitar 1 - Electric (Distortion)
e|---------------|---------------------------------------------------------|
B|---------------|---------------------------------------------------------|
G|-8-------------|-8-------------------------------------------------------|
D|-8-x16--10-----|-8-x16--4-----4--6/8-4-6/8-4-4~~~------------------------|
A|-6------10-x16-|-6------4-x5--4--6/8-4-6/8-4-4~~~------------------------|
E|--------8------|--------2-----2--4/6-2-4/6-2-2~~~------------------------|

Guitar 2 - Electric (Distortion)
e|-------------------------------------------------------------------------|
B|-------------------------------------------------------------------------|
G|-8-8-8-8-6-6-6-6-4-4-4-4-2-2-2-2-3/5-5-5-5-5-3-5/7-3-5/7-3/8-------------|
D|-------------------------------------------------------------------------|
A|-------------------------------------------------------------------------|
E|-------------------------------------------------------------------------|
****************************************************************************
e|-------------------------------------------------------------------------|
B|-------------------------------------------------------------------------|
G|-8-8-8-8-6-6-6-6-4-4-4-4-2-2-2-2-3/5-5-5-5-5-3-5/7-3-5/7-5/3-------------|
D|-------------------------------------------------------------------------|
A|-------------------------------------------------------------------------|
E|-------------------------------------------------------------------------|

Ending Fade-Off
^^^^^^^^^^^^^^^
Guitar 1 - Electric (Distortion)
e|-------------------------------------------------------------------------|
B|-------------------------------------------------------------------------|
G|-8~~~--------------------------------------------------------------------|
D|-------------------------------------------------------------------------|
A|-------------------------------------------------------------------------|
E|-------------------------------------------------------------------------|

Guitar 2 - Electric (Distortion)
e|-------------------------------------------------------------------------|
B|-------------------------------------------------------------------------|
G|-8~~~--------------------------------------------------------------------|
D|-8~~~--------------------------------------------------------------------|
A|-6~~~--------------------------------------------------------------------|
E|-------------------------------------------------------------------------|

Order:
~~~~~~
| Intro x 1
| Verse 1 x 1
| Chorus x 1
| Verse 2 x 1
| Chorus x 2
| Solo x 1
| Verse 1 x 1 + Pianos
| Chorus x 2
| Chorus x 1 + Solo x 1
| Ending Fade-Off x 1

Legend:
~~~~~~~
| /  slide
| h  hammer-on
| ~  let it ring
============================================================================
Comments