Simple Plan - Dont Wanna Think About You Chords & Tabs

 

Dont Wanna Think About You Chords & Tabs

Simple Plan Chords & Tabs

Version: 1 Type: Tab 0 ratings
1 star 2 stars 3 stars 4 stars 5 stars
comments

Dont Wanna Think About You Tab

----------------------------------------------------------------------------
            DONT WANNA THINK ABOUT YOU-SIMPLE PLAN
----------------------------------------------------------------------------

tabbed by: BLINDSK8ER2300
email: BLINDSK8ER2300@CAROLINA.RR.COM

tuning: standard

--------------------------------------------------------------------------
--------------------------------------------------------------------------
--------------------------------------------------------------------------
--66-6-66-8-10-66-6-66-8-10-66-6-66-8-10-88-8-88-6-5--------------------x2
--------------------------------------------------------------------------
--------------------------------------------------------------------------
[ Tab from: http://www.guitartabs.cc/tabs/s/simple_plan/dont_wanna_think_about_you_tab.html ]
--------------------------------------------------------------------------
--------------------------------------------------------------------------
--66-6-66-8-10-66-6-66-8-10-66-6-66-8-10-88-8-88-6-5----------------------
--66-6-66-8-10-66-6-66-8-10-66-6-66-8-10-88-8-88-6-5--------------------x2
--44-4-44-6-8--44-4-44-6-8--44-4-44-6-8--66-6-66-4-3----------------------
--------------------------------------------------------------------------


this song is from the scooby-doo 2 soundtrack.  because the cd is not out yet, I am
having trouble getting the verses and the chorus, but I am working on it. E-mail me if
you think you have it.  I am going to buy the cd when it comes out on the 23rd, so I
should figure it out sometime around then.
Comments