Simple Plan - Dont Wanna Think About You Chords & Tabs

 

Dont Wanna Think About You Chords & Tabs

Simple Plan Chords & Tabs

Version: 1 Type: Bass Tab 0 ratings
1 star 2 stars 3 stars 4 stars 5 stars
comments

Dont Wanna Think About You Bass Tab

Band: Simple Plan
Song: "Don't Wanna Think About You"
Album: Don't Wanna Think About You-Single
Tabbed By: CheezeBiskit \m/ (-_-) \m/
E-Mail: gnarlycharlie2001@yahoo.com 

Ok...I tabbed this song 4 the guitar also.  So I thought I might as well tab it 4 bass
too.  I'm not a bass player, so I don't know if there is anything specific I have to
add.  Anyway, here it is!!! 

Intro: ~Wait~

Pre-Verse: Bass (x2)
eb|-------------------------------------------------------------------|
Gb|-------------------------------------------------------------------|
Db|--5-5-5-5-5-5-5-5-5-5-5-5------------------------------------------|
Eb|---------------------------3-3-3-3-3-3-5-5-5-5-5-5----------------|

Verse: Bass
eb|-------------------------------------------------------------------|
Gb|-------------------------------------------------------------------|
Db|--5-5-5-5-5-5-5-5-5-5-5-5------------------------------------------|
Eb|---------------------------5-5-5-5-5-5-5-5-5-5-5-5-----------------|

Verse Continued: Bass
eb|-------------------------------------------------------------------|
Gb|-------------------------------------------------------------------|
Db|--5-5-5-5-5-5-5-5-5-5----------------------------------------------|
Eb|-----------------------0-2-3-3-3-3-3-3-3-3-3-3-3-3-----------------|

Pre-Chorus: Bass
eb|-------------------------------------------------------------------|
Gb|-------------------------------------------------------------------|
Db|-------------------------------------------------------------------|
Eb|--5-5-5-5-5-5-3-3-3-3-3-3-5-5-5-5-5-5-3----------------------------|
[ Tab from: http://www.guitartabs.cc/tabs/s/simple_plan/dont_wanna_think_about_you_btab.html ]
Chorus: Bass
eb|-------------------------------------------------------------------|
Gb|-------------------------------------------------------------------|
Db|--5-5-5-5-5-5------------------------------------------------------|
Eb|---------------5-5-5-5-5-5--7-7-7-7-7-7--3-3-3-3-3-3---------------|

Chorus Continued: Bass
eb|-------------------------------------------------------------------|
Gb|-------------------------------------------------------------------|
Db|--5-5-5-5-5-5------------------------------------------------------|
Eb|---------------5-5-5-5-5-5--7-7-7-7-7-7--5-5-5-5-5-5---------------|

Post-Chorus: Bass
eb|-------------------------------------------------------------------|
Gb|-------------------------------------------------------------------|
Db|-------------------------------------------------------------------|
Eb|--0-0-0-0-0-3-3-3-3-3-0-0-0-0-0-3--3-------------------------------|

{Return To Pre-Verse}

{Return To Verse}

{Return To Pre-Chorus}

{Return To Chorus}

{Return To Post-Chorus}

Pre-Bridge: Bass
eb|-------------------------------------------------------------------|
Gb|-------------------------------------------------------------------|
Db|-------------------------------------------------------------------|
Eb|--5-5-5-5-5-5-5-5-5-5-5-5------------------------------------------|

Bridge: Bass (x3)
eb|-------------------------------------------------------------------|
Gb|-------------------------------------------------------------------|
Db|---------------------------------------------5-5-5-4-4-4-----------|
Eb|--7-7-7-7-7-7-7--3-3-3-3-3-3-3--5-5-5-5-5-5------------------------|

Interlude: ~Wait~

{Return To Chorus}

{Return To Post-Chorus}

Outro: Bass
{(Play Chorus For Outro)(x4)}

End: Bass
eb|-------------------------------------------------------------------|
Gb|-------------------------------------------------------------------|
Db|-------------------------------------------------------------------|
Eb|--3-3-3-3-3-3-3--3-3-3-3-3-3-3--3-3-3-3-3-3-5-3-2-3~~~~~~~~~~~~~~~~|
Comments