Simple Plan - Crazy Chords & Tabs

 

Crazy Chords & Tabs

Simple Plan Chords & Tabs

Version: 6 Type: Tab 0 ratings
1 star 2 stars 3 stars 4 stars 5 stars
comments

Crazy Tab

   
song:crazy
band:simple plan
i wrote out all the parts first then
i put tem in the right order at the bottom

now im only 14 years old and this is my first tab so sorry
if there is mistakes and please comment

*=palm mute
2nd part of intro
       E              Cm         G#       A#      E
e---------------------------------------------------|
b---------------4444444444444-----------------------|
g-888888888888885555555555555555555555577777777778--|
d-888888888888885555555555555666666666688888888888--|
a-666666666666663333333333333666666666688888888886--|
e---------------333333333333344444444446666666666---|

verse
e---------------------------------------------------|
b---------------4444444444444-----------------------|
g-888888888888885555555555555555555555577777777778--|
d-888888888888885555555555555666666666688888888888--|
a-666666666666663333333333333666666666688888888886--|
e---------------333333333333344444444446666666666---|
pm************************************************
[ Tab from: http://www.guitartabs.cc/tabs/s/simple_plan/crazy_tab_ver_6.html ]
chours
e---------------------------------------------------|
b---------------4444444444444-----------------------|
g-888888888888885555555555555555555555577777777778--|
d-888888888888885555555555555666666666688888888888--|
a-666666666666663333333333333666666666688888888886--|
e---------------333333333333344444444446666666666---|

solo
e--------------------------------------------------|
b--------------------------------------------------|
g--------------------------------------------------|
d-553553-------66666666----------------------------|x2
a-------6666666--------888888----------------------|
e--------------------------------------------------|
key change
chours
     F                     Dm                A#
e-------------------------------------------------------|
b-------------------------------------------------------|
g-10-10-10-10-10-10-10-10-77777777777777777777777777----|
d-10-10-10-10-10-10-10-10-77777777777777777788888888----|
a-8--8--8--8--8--8--8--8--55555555555555555588888888----|
e-------------------------55555555555555555566666666----|
      C          F
e-------------------------------------------------------|
b-------------------------------------------------------|
g-9--9--9--9--9--10-------------------------------------|
d-10-10-10-10-10-10-------------------------------------|x2
a-10-10-10-10-10-8--------------------------------------|
e-8--8--8--8--8-----------------------------------------|

into
verse
chours
verse
chours
solo
verse
key change chours
Comments