Simple Plan - Crash And Burn Chords & Tabs

 

Crash And Burn Chords & Tabs

Simple Plan Chords & Tabs

Version: 3 Type: Tab 0 ratings
1 star 2 stars 3 stars 4 stars 5 stars
comments

Crash And Burn Tab

   
Artist: Simple Plan
Song: Crash and Burn
Album: A Small Package For You CD
Tuning: Tune down a half-step

INTRO GUITAR 1:
e|--------------------------------11-10----11-10----|
B|-3-3-33-3-3-33-6-4-3-4-4-44-3-6-------11-------11-|
G|--------------------------------------------------|
D|--------------------------------------------------|
A|--------------------------------------------------|
E|--------------------------------------------------|

e|--------------------------------11-10-------10----|
B|-3-3-33-3-3-33-6-4-3-4-4-44-3-6-------11-13----11-|
G|--------------------------------------------------|
D|--------------------------------------------------|
A|--------------------------------------------------|
E|--------------------------------------------------|

GUITAR 2:
e|-----------------------------|
B|-----------------------------|
G|-4-4-44-4-4-44---------------|
D|-4-4-44-4-4-44-2-2-22-2-2-22-| (x2)
A|-2-2-22-2-2-22-2-2-22-2-2-22-|
E|---------------0-0-00-0-0-00-|

1st PRE-CHORUS:
e|------------------------------------------------------|
B|------------------------------------------------------|
G|-4-4-44-4-4-44-4-4-44-4-4-44--------------------------|
D|-4-4-44-4-4-44-4-4-44-4-4-44--2-22-2-2-22-2-22-2-2-22-|(x2)
A|-2-2-22-2-2-22-2-2-22-2-2-22--2-22-2-2-22-2-22-2-2-22-|
E|------------------------------0-00-0-0-00-0-00-0-0-00-|

e|---------------------------|
B|---------------------------|
G|---------------------------|
D|-666-666-666-666-2222-2222-|
A|-666-666-666-666-2222-2222-|
E|-444-444-444-444-0000-0000-|

Repeat Intro

2nd PRE-CHORUS:
e|------------------------------------------------------|
B|------------------------------------------------------|
G|-4-4-44-4-4-44-4-4-44-4-4-44--------------------------|
D|-4-4-44-4-4-44-4-4-44-4-4-44--2-22-2-2-22-2-22-2-2-22-|(x2)
A|-2-2-22-2-2-22-2-2-22-2-2-22--2-22-2-2-22-2-22-2-2-22-|
E|------------------------------0-00-0-0-00-0-00-0-0-00-|
PM . . .. . . .. . . .. . . ..  . .. . . .. . .. . . ..
[ Tab from: http://www.guitartabs.cc/tabs/s/simple_plan/crash_and_burn_tab_ver_3.html ]
e|-------------------------------------|
B|-------------------------------------|
G|-------------------44444444----------|
D|-66666666-22222222-44444444-44444444-| (x3)
A|-66666666-22222222-22222222-44444444-|
E|-44444444-00000000----------22222222-|

e|-------------------|
B|-------------------|
G|-------------------|
D|-66666666-22222222-|
A|-66666666-22222222-|
E|-44444444-00000000-|

Repeat Intro Again

Then repeat the second pre-chorus without the palm-muting, and instead of this:
e|-------------------|
B|-------------------|
G|-------------------|
D|-66666666-22222222-|
A|-66666666-22222222-|
E|-44444444-00000000-|

Play this:
e|---------------------|
B|---------------------|
G|---------------------|
D|-66666666-44444444-2-|
A|-66666666-44444444-2-|
E|-44444444-22222222-0-|

SOLO GUITAR 1:
e|----14----14----14----14----14-------12----12----12----12----12----12----|
B|-12----12----12----12----12----12-12----12----12----12----12----12----12-|
G|-------------------------------------------------------------------------|
D|-------------------------------------------------------------------------|
A|-------------------------------------------------------------------------|
E|-------------------------------------------------------------------------|
^x2

GUITAR 2:
e|------------------------------------------------------|
B|------------------------------------------------------|
G|-4-4-44-4-4-44-4-4-44-4-4-44--------------------------|
D|-4-4-44-4-4-44-4-4-44-4-4-44--2-22-2-2-22-2-22-2-2-22-|(x2)
A|-2-2-22-2-2-22-2-2-22-2-2-22--2-22-2-2-22-2-22-2-2-22-|
E|------------------------------0-00-0-0-00-0-00-0-0-00-|

Part with "Do you remember the days," goes like this:
e|-------------------------------|
B|-------------------------------|
G|-------------------------------|
D|-6----2----6----44444444444444-|
A|-6----2----6----44444444444444-|
E|-4----0----4----22222222222222-|
               PM .............

And that's all you need to know.

Feel free to comment/rate.

Enjoy

Comments