Simple Plan - Addicted Chords & Tabs

 

Addicted Chords & Tabs

Simple Plan Chords & Tabs

Version: 7 Type: Tab 0 ratings
1 star 2 stars 3 stars 4 stars 5 stars
comments

Addicted Tab

This tab is divided into 2 parts the lead guitar (part 1) and the rhythm guitar (part 2)

Hope you enjoy it! :D

Gtr1 (lead)
                                                       
D#||--------------------------------------------------|
A#||--------------20--19------------------20--19------|
F#||------19--------------19------19--------------19--|
C#||--19------19--------------19------19--------------|
G#||--------------------------------------------------|
D#||--------------------------------------------------|


                                                   
--------------------------------------------------|
--------------20--19------------------20--19------|
------19--------------19------19--------------19--|
--19------19--------------19------19--------------|
--------------------------------------------------|
--------------------------------------------------|


                                                     
|---------------------------------------------------|
|---------------20--19------------------20--19------|
|*------19--------------19------19--------------19--|
|*--19------19--------------19------19--------------|
|---------------------------------------------------|
|---------------------------------------------------|


                                                                         
---------------------------------------------------||----|----|----|----|
--------------20--19------------------20--19-------||----|----|----|----|
------19--------------19------19--------------19--*||----|----|----|----|
--19------19--------------19------19--------------*||----|----|----|----|
---------------------------------------------------||----|----|----|----|
---------------------------------------------------||----|----|----|----|


                                                                          
------------------------------------|------------------------------------|
-------2--3--2----------2--3--2-----|-------2--3--2----------2--3--2-----|
----2-----------2----2-----------2--|----2-----------2----2-----------2--|
------------------------------------|------------------------------------|
------------------------------------|------------------------------------|
------------------------------------|------------------------------------|


                                                                              
--------------------------------------|--------------------------------------|
--------2--3--2-----------2--3--2-----|--------2--3--2--------2-----3--2-----|
--0--2-----------2--0--2-----------2--|--0--2-----------2--0-----2--------2--|
--------------------------------------|--------------------------------------|
--------------------------------------|--------------------------------------|
--------------------------------------|--------------------------------------|


                                                          
--------0----0--------2----2--|--------------------------|
--------0----0--------3----3--|--------------------------|
--------0----0--------2----2--|--------------------------|
------------------------------|--------------------------|
------------------------------|--------------------------|
------------------------------|--------------------------|


                                                                         
------------------------------------|-----------------------------------|
------------------------------------|-----------------------------------|
--7----7--7--7--7--7----7--7--7--7--|-------------7---------------------|
--7----7--7--7--7--7----7--7--7--7--|--5----5--5--7----7----7--7--7--7--|
--5----5--5--5--5--5----5--5--5--5--|--5----5--5--5----7----7--7--7--7--|
------------------------------------|--3----3--3-------5----5--5--5--5--|


                                                                         
------------------------------------|-----------------------------------|
------------------------------------|-----------------------------------|
--7----7--7--7--7--7----7--7--7--7--|-------------7---------------------|
--7----7--7--7--7--7----7--7--7--7--|--5----5--5--7----7----7--7--------|
--5----5--5--5--5--5----5--5--5--5--|--5----5--5--5----7----7--7--------|
------------------------------------|--3----3--3-------5----5--5--3--2--|


                                                                        
----------2----2----------2----2--|--3--3--3--3--5----5----------------|
----------0----0----------0----0--|--3--3--3--3--5----5----------------|
----------0----0----------0----0--|--2--2--2--2--2----2----2--2--------|
----------0----0----------0----0--|--2--2--2--2--2----2----2--2--------|
--2----2--2----2--2----2--2----2--|--0--0--0--0--0----0----0--0--------|
--0----0--0----0--0----0--0----0--|------------------------------3--2--|


                                                                     
----------2----2----------2----2--|--3--3--3--3--5--5--5------------|
----------0----0----------0----0--|--3--3--3--3--5--5--5------------|
----------0----0----------0----0--|--2--2--2--2--2--2--2------------|
----------0----0----------0----0--|--2--2--2--2--2--2--2------------|
--2----2--2----2--2----2--2----2--|--0--0--0--0--0--0--0------------|
--0----0--0----0--0----0--0----0--|---------------------------------|


                                                   
--------------------------------------------------|
--------------20--19------------------20--19------|
------19--------------19------19--------------19--|
--19------19--------------19------19--------------|
--------------------------------------------------|
--------------------------------------------------|


                                                   
--------------------------------------------------|
--------------20--19------------------20--19------|
------19--------------19------19--------------19--|
--19------19--------------19------19--------------|
--------------------------------------------------|
--------------------------------------------------|


                                                   
--------------------------------------------------|
--------------20--19------------------20--19------|
------19--------------19------19--------------19--|
--19------19--------------19------19--------------|
--------------------------------------------------|
--------------------------------------------------|


                                                   
--------------------------------------------------|
--------------20--19------------------20--19------|
------19--------------19------19--------------19--|
--19------19--------------19------19--------------|
--------------------------------------------------|
--------------------------------------------------|


                                                                       
--------------------------------------------------|----|----|----|----|
--------------20--19------------------20--19------|----|----|----|----|
------19--------------19------19--------------19--|----|----|----|----|
--19------19--------------19------19--------------|----|----|----|----|
--------------------------------------------------|----|----|----|----|
--------------------------------------------------|----|----|----|----|


                                                                          
------------------------------------|------------------------------------|
-------2--3--2----------2--3--2-----|-------2--3--2----------2--3--2-----|
----2-----------2----2-----------2--|----2-----------2----2-----------2--|
------------------------------------|------------------------------------|
------------------------------------|------------------------------------|
------------------------------------|------------------------------------|


                                                                              
--------------------------------------|--------------------------------------|
--------2--3--2-----------2--3--2-----|--------2--3--2--------2-----3--2-----|
--0--2-----------2--0--2-----------2--|--0--2-----------2--0-----2--------2--|
--------------------------------------|--------------------------------------|
--------------------------------------|--------------------------------------|
--------------------------------------|--------------------------------------|


                                                           
--------0----0--------2----2--|--------------5------------|
--------0----0--------3----3--|--------------5------------|
--------0----0--------2----2--|--------------2------------|
------------------------------|--------------2------------|
------------------------------|--------------0------------|
------------------------------|---------------------------|


                                                          
--------0----0--------3----3--|--------------------------|
--------0----0--------3----3--|--------------------------|
--------0----0--------0----0--|--------------------------|
------------------------------|--------------------------|
------------------------------|--------------------------|
------------------------------|--------------------------|


                                                                         
------------------------------------|-----------------------------------|
------------------------------------|-----------------------------------|
--7----7--7--7--7--7----7--7--7--7--|-------------7---------------------|
--7----7--7--7--7--7----7--7--7--7--|--5----5--5--7----7----7--7--7--7--|
--5----5--5--5--5--5----5--5--5--5--|--5----5--5--5----7----7--7--7--7--|
------------------------------------|--3----3--3-------5----5--5--5--5--|


                                                                         
------------------------------------|-----------------------------------|
------------------------------------|-----------------------------------|
--7----7--7--7--7--7----7--7--7--7--|-------------7---------------------|
--7----7--7--7--7--7----7--7--7--7--|--5----5--5--7----7----7--7--------|
--5----5--5--5--5--5----5--5--5--5--|--5----5--5--5----7----7--7--------|
------------------------------------|--3----3--3-------5----5--5--3--2--|


                                                                        
----------2----2----------2----2--|--3--3--3--3--5----5----------------|
----------0----0----------0----0--|--3--3--3--3--5----5----------------|
----------0----0----------0----0--|--2--2--2--2--2----2----2--2--------|
----------0----0----------0----0--|--2--2--2--2--2----2----2--2--------|
--2----2--2----2--2----2--2----2--|--0--0--0--0--0----0----0--0--------|
--0----0--0----0--0----0--0----0--|------------------------------3--2--|


                                                                         
----------2----2----------2----2--|----|--------------------------------|
----------0----0----------0----0--|----|-----------------3------3-------|
----------0----0----------0----0--|----|--0------0-------2------2-------|
----------0----0----------0----0--|----|--0------0-------0------0-------|
--2----2--2----2--2----2--2----2--|----|--2------2----0--0------0----0--|
--0----0--0----0--0----0--0----0--|----|--3------3----0--2------2----0--|


                                                                   
-----------------2----2--2----2--|--------------------------------|
--0------0-------3----3--3----3--|-----------------3------3-------|
--0------0----0--2----2--2----2--|--0------0-------2------2-------|
--2------2----0--0----0--0----0--|--0------0-------0------0-------|
--2------2----0------------------|--2------2----0--0------0----0--|
--0------0----0------------------|--3------3----0--2------2----0--|


                                                                   
---------------------------------|--------------------------------|
--0------0-------3----3--3-------|-----------------3------3-------|
--0------0----0--2----2--2-------|--0------0-------2------2-------|
--2------2----0--2----2--2-------|--0------0-------0------0-------|
--2------2----0--0----0--0----0--|--2------2----0--0------0----0--|
--0------0----0---------------0--|--3------3----0--2------2----0--|


                                                                   
-----------------2----2--2----2--|--------------------------------|
--0------0-------3----3--3----3--|-----------------3------3-------|
--0------0----0--2----2--2----2--|--0------0-------2------2-------|
--2------2----0--0----0--0----0--|--0------0-------0------0-------|
--2------2----0------------------|--2------2----0--0------0----0--|
--0------0----0------------------|--3------3----0--2------2----0--|


                                                 
---------------------------------|----|----|----|
--0------0-------3----3--3-------|----|----|----|
--0------0----0--2----2--2-------|----|----|----|
--2------2----0--2----2--2-------|----|----|----|
--2------2----0--0----0--0----0--|----|----|----|
--0------0----0---------------0--|----|----|----|


                                                                              
--------------------------------------|--------------------------------------|
--------------------------------------|--------------------------------------|
--------------------------------------|--------------------------------------|
--0--0--0--2--2--2--4--4--4--5--5--5/-|--0--0--0--2--2--2/-5--5--5--4--4--4--|
--------------------------------------|--------------------------------------|
--------------------------------------|--------------------------------------|


                                                                              
--------------------------------------|--------------------------------------|
--------------------------------------|--------------------------------------|
--------------------------------------|--------------------------------------|
--0--0--0--2--2--2--4--4--4--5--5--5/-|--0--0--0--2--2--2/-5--5--5--4--4--4--|
--------------------------------------|--------------------------------------|
--------------------------------------|--------------------------------------|


                                       
--------------------------------------|
--------------------------------------|
--------------------------------------|
--2--2--2/-4--4--4/-5--5--5/-7--7--7--|
--------------------------------------|
--------------------------------------|


                                                                               
-----------------------------------------|------------------------------------|
-----------------------------------------|------------------------------------|
-----------------------------------------|--7----7--7--7--7--7----7--7--7--7--|
--5--5--5/-7--7--7/-9--9--9/-11--11--11--|--7----7--7--7--7--7----7--7--7--7--|
-----------------------------------------|--5----5--5--5--5--5----5--5--5--5--|
-----------------------------------------|------------------------------------|


                                                                         
-----------------------------------|------------------------------------|
-----------------------------------|------------------------------------|
-------------7---------------------|--7----7--7--7--7--7----7--7--7--7--|
--5----5--5--7----7----7--7--7--7--|--7----7--7--7--7--7----7--7--7--7--|
--5----5--5--5----7----7--7--7--7--|--5----5--5--5--5--5----5--5--5--5--|
--3----3--3-------5----5--5--5--5--|------------------------------------|


                                                                         
-----------------------------------|------------------------------------|
-----------------------------------|------------------------------------|
-------------7---------------------|--7----7--7--7--7--7----7--7--7--7--|
--5----5--5--7----7----7--7--------|--7----7--7--7--7--7----7--7--7--7--|
--5----5--5--5----7----7--7--------|--5----5--5--5--5--5----5--5--5--5--|
--3----3--3-------5----5--5--3--2--|------------------------------------|


                                                                         
-----------------------------------|------------------------------------|
-----------------------------------|------------------------------------|
-------------7---------------------|--7----7--7--7--7--7----7--7--7--7--|
--5----5--5--7----7----7--7--7--7--|--7----7--7--7--7--7----7--7--7--7--|
--5----5--5--5----7----7--7--7--7--|--5----5--5--5--5--5----5--5--5--5--|
--3----3--3-------5----5--5--5--5--|------------------------------------|


                                                                       
-----------------------------------|----------2----2----------2----2--|
-----------------------------------|----------0----0----------0----0--|
-------------7---------------------|----------0----0----------0----0--|
--5----5--5--7----7----7--7--------|----------0----0----------0----0--|
--5----5--5--5----7----7--7--------|--2----2--2----2--2----2--2----2--|
--3----3--3-------5----5--5--3--2--|--0----0--0----0--0----0--0----0--|


                                                                        
--3--3--3--3--5----5----------------|----------2----2----------2----2--|
--3--3--3--3--5----5----------------|----------0----0----------0----0--|
--2--2--2--2--2----2----2--2--------|----------0----0----------0----0--|
--2--2--2--2--2----2----2--2--------|----------0----0----------0----0--|
--0--0--0--0--0----0----0--0--------|--2----2--2----2--2----2--2----2--|
------------------------------3--2--|--0----0--0----0--0----0--0----0--|


                                       
--3--3--3--3--3--3--3--3--3--3--3--3--|
--3--3--3--3--3--3--3--3--3--3--3--3--|
--2--2--2--2--2--2--2--2--2--2--2--2--|
--2--2--2--2--2--2--2--2--2--2--2--2--|
--0--0--0--0--0--0--0--0--0--0--0--0--|
--------------------------------------|


                                                   
--------------------------------------------------|
--------------20--19------------------20--19------|
------19--------------19------19--------------19--|
--19------19--------------19------19--------------|
--------------------------------------------------|
--------------------------------------------------|


                                                   
--------------------------------------------------|
--------------20--19------------------20--19------|
------19--------------19------19--------------19--|
--19------19--------------19------19--------------|
--------------------------------------------------|
--------------------------------------------------|


                                                   
--------------------------------------------------|
--------------20--19------------------20--19------|
------19--------------19------19--------------19--|
--19------19--------------19------19--------------|
--------------------------------------------------|
--------------------------------------------------|


                                                   
--------------------------------------------------|
--------------20--19------------------20--19------|
------19--------------19------19--------------19--|
--19------19--------------19------19--------------|
--------------------------------------------------|
--------------------------------------------------|


                                                   
--------------------------------------------------|
--------------20--19------------------20--19------|
------19--------------19------19--------------19--|
--19------19--------------19------19--------------|
--------------------------------------------------|
--------------------------------------------------|


                                                   
--------------------------------------------------|
--------------20--19------------------20--19------|
------19--------------19------19--------------19--|
--19------19--------------19------19--------------|
--------------------------------------------------|
--------------------------------------------------|


                                                   
--------------------------------------------------|
--------------20--19------------------20--19------|
------19--------------19------19--------------19--|
--19------19--------------19------19--------------|
--------------------------------------------------|
--------------------------------------------------|

[ Tab from: http://www.guitartabs.cc/tabs/s/simple_plan/addicted_tab_ver_7.html ]
                                                   
--------------------------------------------------|
--------------20--19------------------20--19------|
------19--------------19------19--------------19--|
--19------19--------------19------19--------------|
--------------------------------------------------|
--------------------------------------------------|


                                                         
--------------------------------------------------|----||
--------------20--19------------------20--19------|----||
------19--------------19------19--------------19--|----||
--19------19--------------19------19--------------|----||
--------------------------------------------------|----||
--------------------------------------------------|----||






Gtr2 (rhythm)
                                                           
D#||------|------||---------------------------------------|
A#||------|------||---------------------------------------|
F#||------|------||*--7--7--7--7--7--7--7--7--7--7--7--7--|
C#||------|------||*--7--7--7--7--7--7--7--7--7--7--7--7--|
G#||------|------||---5--5--5--5--5--5--5--5--5--5--5--5--|
D#||------|------||---------------------------------------|


                                                                         
---------------------------------------||--------------------------|----|
---------------------------------------||--------------------------|----|
--------------------------------------*||--------------------------|----|
--5--5--5--5--5--5--7--7--7--7--7--7--*||--------------------------|----|
--5--5--5--5--5--5--7--7--7--7--7--7---||--------------------------|----|
--3--3--3--3--3--3--5--5--5--5--5--5---||--------------------------|----|


                                                                              
--------------------------------------|--------------------------------------|
--------------------------------------|--------------------------------------|
--------------------------------------|--------------------------------------|
-----------5-----------------5--------|-----------5--------------------5--5--|
--5--5--5--5--5--5--5--5--5--5--5--5--|--5--5--5--5--5--5--5--5--5--5--5--5--|
--3--3--3--3--3--3--3--3--3--3--3--3--|--3--3--3--3--3--3--3--3--3--3--3--3--|


                                                                              
--------------------------------------|--------------------------------------|
--------------------------------------|--------------------------------------|
-----------7-----------------7--------|-----------7--------------------7--7--|
--7--7--7--7--7--7--7--7--7--7--7--7--|--7--7--7--7--7--7--7--7--7--7--7--7--|
--5--5--5--5--5--5--5--5--5--5--5--5--|--5--5--5--5--5--5--5--5--5--5--5--5--|
--------------------------------------|--------------------------------------|


                                                                              
--------------------------------------|--------------------------------------|
--------------------------------------|--------------------------------------|
--------------------------------------|--------------------------------------|
-----------5-----------------5--------|-----------5--------------------5--5--|
--5--5--5--5--5--5--5--5--5--5--5--5--|--5--5--5--5--5--5--5--5--5--5--5--5--|
--3--3--3--3--3--3--3--3--3--3--3--3--|--3--3--3--3--3--3--3--3--3--3--3--3--|


                                                                 
------------------------------|---------------------------------|
------------------------------|---------------------------------|
------------------------------|---------------------------------|
--2----2--------0----0--------|--5--5--5--5--5--5--7------------|
--2----2--------0----0--------|--5--5--5--5--5--5--7------------|
--0----0--------2----2--------|--3--3--3--3--3--3--5------------|


                                                                         
------------------------------------|-----------------------------------|
------------------------------------|-----------------------------------|
--7----7--7--7--7--7----7--7--7--7--|-------------7---------------------|
--7----7--7--7--7--7----7--7--7--7--|--5----5--5--7----7----7--7--7--7--|
--5----5--5--5--5--5----5--5--5--5--|--5----5--5--5----7----7--7--7--7--|
------------------------------------|--3----3--3-------5----5--5--5--5--|


                                                                         
------------------------------------|-----------------------------------|
------------------------------------|-----------------------------------|
--7----7--7--7--7--7----7--7--7--7--|-------------7---------------------|
--7----7--7--7--7--7----7--7--7--7--|--5----5--5--7----7----7--7--------|
--5----5--5--5--5--5----5--5--5--5--|--5----5--5--5----7----7--7--------|
------------------------------------|--3----3--3-------5----5--5--3--2--|


                                                                        
----------2----2----------2----2--|--3--3--3--3--5----5----------------|
----------0----0----------0----0--|--3--3--3--3--5----5----------------|
----------0----0----------0----0--|--2--2--2--2--2----2----2--2--------|
----------0----0----------0----0--|--2--2--2--2--2----2----2--2--------|
--2----2--2----2--2----2--2----2--|--0--0--0--0--0----0----0--0--------|
--0----0--0----0--0----0--0----0--|------------------------------3--2--|


                                                                     
----------2----2----------2----2--|--3--3--3--3--5--5--5------------|
----------0----0----------0----0--|--3--3--3--3--5--5--5------------|
----------0----0----------0----0--|--2--2--2--2--2--2--2------------|
----------0----0----------0----0--|--2--2--2--2--2--2--2------------|
--2----2--2----2--2----2--2----2--|--0--0--0--0--0--0--0------------|
--0----0--0----0--0----0--0----0--|---------------------------------|


                                                                    
----------------------------|--------------------------------------|
----------------------------|--------------------------------------|
----------------------------|--7--7--7--7--7--7--7--7--7--7--7--7--|
--5------------------7------|--7--7--7--7--7--7--7--7--7--7--7--7--|
--5------------------7------|--5--5--5--5--5--5--5--5--5--5--5--5--|
--3------------------5------|--------------------------------------|


                                                                              
--------------------------------------|--------------------------------------|
--------------------------------------|--------------------------------------|
--------------------------------------|--7--7--7--7--7--7--7--7--7--7--7--7--|
--5--5--5--5--5--5--7--7--7--7--7--7--|--7--7--7--7--7--7--7--7--7--7--7--7--|
--5--5--5--5--5--5--7--7--7--7--7--7--|--5--5--5--5--5--5--5--5--5--5--5--5--|
--3--3--3--3--3--3--5--5--5--5--5--5--|--------------------------------------|


                                                                        
--------------------------------------|---------------------------|----|
--------------------------------------|---------------------------|----|
--------------------------------------|--7------------------------|----|
--5--5--5--5--5--5--7--7--7--7--7--7--|--7------------------------|----|
--5--5--5--5--5--5--7--7--7--7--7--7--|--5------------------------|----|
--3--3--3--3--3--3--5--5--5--5--5--5--|---------------------------|----|


                                                                              
--------------------------------------|--------------------------------------|
--------------------------------------|--------------------------------------|
--------------------------------------|--------------------------------------|
-----------5-----------------5--------|-----------5--------------------5--5--|
--5--5--5--5--5--5--5--5--5--5--5--5--|--5--5--5--5--5--5--5--5--5--5--5--5--|
--3--3--3--3--3--3--3--3--3--3--3--3--|--3--3--3--3--3--3--3--3--3--3--3--3--|


                                                                              
--------------------------------------|--------------------------------------|
--------------------------------------|--------------------------------------|
-----------7-----------------7--------|-----------7--------------------7--7--|
--7--7--7--7--7--7--7--7--7--7--7--7--|--7--7--7--7--7--7--7--7--7--7--7--7--|
--5--5--5--5--5--5--5--5--5--5--5--5--|--5--5--5--5--5--5--5--5--5--5--5--5--|
--------------------------------------|--------------------------------------|


                                                                              
--------------------------------------|--------------------------------------|
--------------------------------------|--------------------------------------|
--------------------------------------|--------------------------------------|
-----------5-----------------5--------|-----------5--------------------5--5--|
--5--5--5--5--5--5--5--5--5--5--5--5--|--5--5--5--5--5--5--5--5--5--5--5--5--|
--3--3--3--3--3--3--3--3--3--3--3--3--|--3--3--3--3--3--3--3--3--3--3--3--3--|


                                                                 
------------------------------|----------3----3--------5--------|
------------------------------|----------3----3--------5--------|
------------------------------|----------0----0--------2--------|
--2----2--------0----0--------|--5----5-------------------------|
--2----2--------0----0--------|--5----5-------------------------|
--0----0--------2----2--------|--3----3-------------------3--2--|


                                                                 
------------------------------|---------------------------------|
------------------------------|---------------------------------|
------------------------------|---------------------------------|
--2----2--------5----5--------|--7--7--7--7--7--7--7------------|
--2----2--------5----5--------|--7--7--7--7--7--7--7------------|
--0----0--------3----3--------|--5--5--5--5--5--5--5------------|


                                                                         
------------------------------------|-----------------------------------|
------------------------------------|-----------------------------------|
--7----7--7--7--7--7----7--7--7--7--|-------------7---------------------|
--7----7--7--7--7--7----7--7--7--7--|--5----5--5--7----7----7--7--7--7--|
--5----5--5--5--5--5----5--5--5--5--|--5----5--5--5----7----7--7--7--7--|
------------------------------------|--3----3--3-------5----5--5--5--5--|


                                                                         
------------------------------------|-----------------------------------|
------------------------------------|-----------------------------------|
--7----7--7--7--7--7----7--7--7--7--|-------------7---------------------|
--7----7--7--7--7--7----7--7--7--7--|--5----5--5--7----7----7--7--------|
--5----5--5--5--5--5----5--5--5--5--|--5----5--5--5----7----7--7--------|
------------------------------------|--3----3--3-------5----5--5--3--2--|


                                                                        
----------2----2----------2----2--|--3--3--3--3--5----5----------------|
----------0----0----------0----0--|--3--3--3--3--5----5----------------|
----------0----0----------0----0--|--2--2--2--2--2----2----2--2--------|
----------0----0----------0----0--|--2--2--2--2--2----2----2--2--------|
--2----2--2----2--2----2--2----2--|--0--0--0--0--0----0----0--0--------|
--0----0--0----0--0----0--0----0--|------------------------------3--2--|


                                                                               
----------2----2----------2----2--|--3--3--3--3--3--3--5--5--5--5--5--5--|----|
----------0----0----------0----0--|--3--3--3--3--3--3--5--5--5--5--5--5--|----|
----------0----0----------0----0--|--2--2--2--2--2--2--2--2--2--2--2--2--|----|
----------0----0----------0----0--|--2--2--2--2--2--2--2--2--2--2--2--2--|----|
--2----2--2----2--2----2--2----2--|--0--0--0--0--0--0--0--0--0--0--0--0--|----|
--0----0--0----0--0----0--0----0--|--------------------------------------|----|


                                                                          
----|----|----|----|----|----|----|--------------------------------------|
----|----|----|----|----|----|----|--------------------------------------|
----|----|----|----|----|----|----|--------------------------------------|
----|----|----|----|----|----|----|--------------------------------------|
----|----|----|----|----|----|----|--5--5--5--5--5--5--5--5--5--5--5--5--|
----|----|----|----|----|----|----|--3--3--3--3--3--3--2--2--2--2--2--2--|


                                                                              
--------------------2--2--2--2--2--2--|--------------------------------------|
--------------------3--3--3--3--3--3--|--------------------------------------|
--------------------2--2--2--2--2--2--|--------------------------------------|
--------------------0--0--0--0--0--0--|--------------------------------------|
--2--2--2--2--2--2--------------------|--2--2--2--2--2--2--5--5--5--5--5--5--|
--0--0--0--0--0--0--------------------|--0--0--0--0--0--0--2--2--2--2--2--2--|


                                                                              
--------------------------------------|--------------------------------------|
--------------------------------------|--------------------------------------|
--------------------------------------|--------------------------------------|
--5--5--5--5--5--5--5--5--5--5--5--5--|--7--7--7--7--7--7--7--7--7--7--7--7--|
--5--5--5--5--5--5--5--5--5--5--5--5--|--7--7--7--7--7--7--7--7--7--7--7--7--|
--3--3--3--3--3--3--3--3--3--3--3--3--|--5--5--5--5--5--5--5--5--5--5--5--5--|


                                                                              
--------------------------------------|--------------------------------------|
--------------------------------------|--------------------------------------|
--------------------------------------|--------------------------------------|
--5--5--5--5--5--5--5--5--5--5--5--5--|--7--7--7--7--7--7--7--7--7--7--7--7--|
--5--5--5--5--5--5--5--5--5--5--5--5--|--7--7--7--7--7--7--7--7--7--7--7--7--|
--3--3--3--3--3--3--3--3--3--3--3--3--|--5--5--5--5--5--5--5--5--5--5--5--5--|


                                                                              
--------------------------------------|--------------------------------------|
--------------------------------------|--------------------------------------|
--------------------------------------|--------------------------------------|
--2--2--2--2--2--2--5--5--5--5--5--5--|--5--5--5--5--5--5--7--7--7--7--7--7--|
--2--2--2--2--2--2--5--5--5--5--5--5--|--5--5--5--5--5--5--7--7--7--7--7--7--|
--0--0--0--0--0--0--2--2--2--2--2--2--|--3--3--3--3--3--3--5--5--5--5--5--5--|


                                                                         
------------------------------------|-----------------------------------|
------------------------------------|-----------------------------------|
--7----7--7--7--7--7----7--7--7--7--|-------------7---------------------|
--7----7--7--7--7--7----7--7--7--7--|--5----5--5--7----7----7--7--7--7--|
--5----5--5--5--5--5----5--5--5--5--|--5----5--5--5----7----7--7--7--7--|
------------------------------------|--3----3--3-------5----5--5--5--5--|


                                                                         
------------------------------------|-----------------------------------|
------------------------------------|-----------------------------------|
--7----7--7--7--7--7----7--7--7--7--|-------------7---------------------|
--7----7--7--7--7--7----7--7--7--7--|--5----5--5--7----7----7--7--------|
--5----5--5--5--5--5----5--5--5--5--|--5----5--5--5----7----7--7--------|
------------------------------------|--3----3--3-------5----5--5--3--2--|


                                                                         
------------------------------------|-----------------------------------|
------------------------------------|-----------------------------------|
--7----7--7--7--7--7----7--7--7--7--|-------------7---------------------|
--7----7--7--7--7--7----7--7--7--7--|--5----5--5--7----7----7--7--7--7--|
--5----5--5--5--5--5----5--5--5--5--|--5----5--5--5----7----7--7--7--7--|
------------------------------------|--3----3--3-------5----5--5--5--5--|


                                                                         
------------------------------------|-----------------------------------|
------------------------------------|-----------------------------------|
--7----7--7--7--7--7----7--7--7--7--|-------------7---------------------|
--7----7--7--7--7--7----7--7--7--7--|--5----5--5--7----7----7--7--------|
--5----5--5--5--5--5----5--5--5--5--|--5----5--5--5----7----7--7--------|
------------------------------------|--3----3--3-------5----5--5--3--2--|


                                                                        
----------2----2----------2----2--|--3--3--3--3--5----5----------------|
----------0----0----------0----0--|--3--3--3--3--5----5----------------|
----------0----0----------0----0--|--2--2--2--2--2----2----2--2--------|
----------0----0----------0----0--|--2--2--2--2--2----2----2--2--------|
--2----2--2----2--2----2--2----2--|--0--0--0--0--0----0----0--0--------|
--0----0--0----0--0----0--0----0--|------------------------------3--2--|


                                                                          
----------2----2----------2----2--|--3--3--3--3--3--3--3--3--3--3--3--3--|
----------0----0----------0----0--|--3--3--3--3--3--3--3--3--3--3--3--3--|
----------0----0----------0----0--|--2--2--2--2--2--2--2--2--2--2--2--2--|
----------0----0----------0----0--|--2--2--2--2--2--2--2--2--2--2--2--2--|
--2----2--2----2--2----2--2----2--|--0--0--0--0--0--0--0--0--0--0--0--0--|
--0----0--0----0--0----0--0----0--|--------------------------------------|


                                                                      
------------------------------|--------------------------------------|
------------------------------|--------------------------------------|
------------------------------|--7--7--7--7--7--7--7--7--7--7--7--7--|
--5------------------7--7--7--|--7--7--7--7--7--7--7--7--7--7--7--7--|
--5------------------7--7--7--|--5--5--5--5--5--5--5--5--5--5--5--5--|
--3------------------5--5--5--|--------------------------------------|


                                                                              
--------------------------------------|--------------------------------------|
--------------------------------------|--------------------------------------|
--------------------------------------|--7--7--7--7--7--7--7--7--7--7--7--7--|
--5--5--5--5--5--5--7--7--7--7--7--7--|--7--7--7--7--7--7--7--7--7--7--7--7--|
--5--5--5--5--5--5--7--7--7--7--7--7--|--5--5--5--5--5--5--5--5--5--5--5--5--|
--3--3--3--3--3--3--5--5--5--5--5--5--|--------------------------------------|


                                                                              
--------------------------------------|--------------------------------------|
--------------------------------------|--------------------------------------|
--------------------------------------|--7--7--7--7--7--7--7--7--7--7--7--7--|
--5--5--5--5--5--5--7--7--7--7--7--7--|--7--7--7--7--7--7--7--7--7--7--7--7--|
--5--5--5--5--5--5--7--7--7--7--7--7--|--5--5--5--5--5--5--5--5--5--5--5--5--|
--3--3--3--3--3--3--5--5--5--5--5--5--|--------------------------------------|


                                                                              
--------------------------------------|--------------------------------------|
--------------------------------------|--------------------------------------|
--------------------------------------|--7--7--7--7--7--7--7--7--7--7--7--7--|
--5--5--5--5--5--5--7--7--7--7--7--7--|--7--7--7--7--7--7--7--7--7--7--7--7--|
--5--5--5--5--5--5--7--7--7--7--7--7--|--5--5--5--5--5--5--5--5--5--5--5--5--|
--3--3--3--3--3--3--5--5--5--5--5--5--|--------------------------------------|


                                                            
--------------------------------------|-------------------||
--------------------------------------|-------------------||
--------------------------------------|--7----------------||
--5--5--5--5--5--5--7--7--7--7--7--7--|--5----------------||
--5--5--5--5--5--5--7--7--7--7--7--7--|--5----------------||
--3--3--3--3--3--3--5--5--5--5--5--5--|-------------------||
Comments