Simple Plan - Addicted Chords & Tabs

 

Addicted Chords & Tabs

Simple Plan Chords & Tabs

Version: 3 Type: Bass Tab 0 ratings
1 star 2 stars 3 stars 4 stars 5 stars
comments

Addicted Bass Tab

   
--------------------------------------------------------------------------------
                             Addicted - Simple Plan
--------------------------------------------------------------------------------

Artist: Simple Plan
Song: Addicted
Albulm: No Pads, No Helmets...Just Balls
Tabbed by: ZeroisGreatMan
Tunning: EADG

Guitar Intro:

Then

Intro/Chorus/Fill/Outro: 
"I'm trying to..."/"Heart breaker"
G|---------------------------------------------------|
D|---------------------------------------------------|
A|-4-4-4-4-4-4-4-4-4-4-4-4---------------------------|
E|--------------------------2-2-2-2-2-2--4-4-4-4-4-4-|
[ Tab from: http://www.guitartabs.cc/tabs/s/simple_plan/addicted_btab_ver_3.html ]
Verse: "I heard your doing ok, but I want you to know"
G|-----------------|
D|-----------------|
A|-4-(x20)---------|
E|---------2(x20)--|

Pre - chorus/Bridge:
"I tried to make you happy..."
"Now it's over..."
"I don't know why I'm still waiting"
G|-----------------------------------|
D|-----------------------------------|
A|-6-6-6-6-6-6-6-6-------------------|
E|------------------2-2-2-2--4-4-4-4-|

Outro: "Heart Breaker"
G|---|
D|---|
A|-4-|
E|---|



Intro: (x2)
Verse: (x2)
Pre-Chorus: (x1)
Chorus: (x2)
Pre - Chorus:(x2)
Chorus: (x2)
Verse: (x2)
Pre-Chorus: (x2)
Chorus: (x2)
Prechorus:(x2)
Bridge: (x6)
chorus: (x4)
Pre-chorus:(x2)
Chorus: (x6)
Outro: (x1)


================================================================================
Comments