Simon Paul - Long Long Day Chords & Tabs

 

Long Long Day Chords & Tabs

Simon Paul Chords & Tabs

Version: 1 Type: Tab 1 rating
1 star 2 stars 3 stars 4 stars 5 stars
comments

Long Long Day Tab

   
#----------------------------------PLEASE NOTE---------------------------------#
#This file is the author's own work and represents their interpretation of the #
#song. You may only use this file for private study, scholarship, or research. #
#------------------------------------------------------------------------------#

Paul Simon

long long day

COUNT EACH BAR IN GROUPS OF 6 BEATS

(if you hear something that sounds more right than what i have here please add a comment)   

intro
 

  CMAJ7            G                 CMAJ7            G
|---------12-----|-----------------|-------15--17---- |15---------------|
|----- 8---------|-----------------|-----8------------|--15--11SL-8-----|
|--7h9-----------|------7-9--7-----|-7-9------------- |-----------------|
|----------------|-7h9-------------|----------------- |-----------------|
|----------------|-----------------|------------------|-----------------|
|----------------|-----------------|------------------|-----------------|



  CMAJ7                  G             F                       E       
|--------12-------|-12-12p10--------|-----------------|-----------------|
|------8----------|----------12- ---|---8-10-11-10----|-11-10-----------|
|--7h9------------|-----------------|-----------------|-----------------|
|-----------------|-----------------|-----------------|-----------------|
|-----------------|-----------------|-----------------|-----------------|
|-----------------|-----------------|-----------------|--------0--2--4--|

 

verse 1


 
  A          A/G#          C#7add3 C#7addb3  F#m             B7          E               
|-------------------------|----------------|--2--------------2-------|---0---------------|-----------
|--2--------------2-------|----5----4------|--2--------------4-------|---0---------------|-----------
|--2--------------2-------|----4----4------|--2--------------2-------|---1---------------|-----------
|--2--------------2-------|----3----3------|--4--------------4-------|---2---------------|-----------
|0------------------------|--4-4--4--------|----------------2--------|---2---------------|-----------
|---------------4---------|----------------|-2-----------------------|--0----------------|------0-2-4



  A             Bbdim         Badd9    C#7add3 C#7addb3  C#dim     F#m 
|-------------------------|-----4------------|-----------------|-----2----------2----|
|---2--------------2------|-----4-------5----|---4------3------|-----2----------2----|
|---2--------------0------|----4--------4----|---4------4------|-----2----------2----|
|--2---------------2------|-----------3------|--3------3-------|----2----------2-----|
|-0---------------1------ |--2-------4-------|-4------4--------|---------------------|
|-------------------------|------------------|-----------------|--2---------2--------|
   


    B   B/C bass      C#m               G#                  C#m
|-----------------|-----------------|-------4----------|----4-------------|
|---4---4---------|-----5-----5-----|-------4----------|----5-------------|
|---4---4---------|-----6-----6-----|-----5------------|----6-------------|
|--4----4---------|----6-----6------|---6--------------|---6--------------|
|-2----3----------|--4------4-------|---6--------------|--4---------------|
|-----------------|-----------------|--4---------------|------------------|
 

   Bm/ G bass       Bm/A bass D/A bass    Asus4  A               Emaj7
|-------2----------|--2-------2------|------------------|-----4------------|
|-------3----------|--3-------3------|--3-----2---------|-----4------------|
|------4-----------|--4-------2------|--2-----2---------|-----4------------|
|----4-------------|--0--------------|--2-----2---------|----2-------------|
|------------------|--0-------2------|-0-----0----------|------------------|
|--3---------------|-----------------|------------------|--0---------------|
                        


verse 2


  A          A/G#          C#7add3 C#7addb3  F#m             B7          E               
|-------------------------|----------------|--2--------------2-------|---0---------------|------
|--2--------------2-------|----5----4------|--2--------------4-------|---0---------------|------
|--2--------------2-------|----4----4------|--2--------------2-------|---1---------------|------
|--2--------------2-------|----3----3------|--4--------------4-------|---2---------------|------
|0------------------------|--4-4--4--------|----------------2--------|---2---------------|------
|----------------4--------|----------------|-2-----------------------|--0----------------|-0-2-4


[ Tab from: http://www.guitartabs.cc/tabs/s/simon_paul/long_long_day_tab.html ]
  A             Bbdim       Badd9    C#7add3       C#7addb3  C#dim     F#m 
|-------------------------|-----4-----------------|-------------------|-----2----------2----|
|---2--------------2------|-----4---------5-------|---4--------3------|-----2----------2----|
|---2--------------0------|----4----------4-------|---4--------4------|-----2----------2----|
|--2---------------2------|-------------3---------|--3--------3-------|----2----------2-----|
|-0---------------1------ |--2---------4----------|-4--------4--------|---------------------|
|-------------------------|-----------------------|-------------------|--2---------2--------|



    B   B/C bass      C#m7      G#        C#m
|-----------------|--------------------|-------4----------|
|---4---4---------|-----5------4-------|----5-------------|
|---4---4---------|-----4------5-------|----6-------------|
|--4----4---------|----6-------6-------|---6--------------|
|-2----3----------|--4--------6--------|--4---------------|
|-----------------|----------4---------|------------------|
  


   Bm/ G bass         Bm/A    D/A        Asus4                  Emaj7
|-------2----------|---2-------2-------|------------------|------4-----------|
|-------3----------|---3-------3-------|--3-------2-------|------4-----------|
|------4-----------|---4-------2-------|--2-------2-------|------4-----------|
|----4-------------|-------------------|--2-------2-------|-----2------------|
|------------------|---0-------0-------|-0-------0--------|------------------|
|--3---------------|-------------------|------------------|---0--------------|
                


Bridge


 CMAJ7            G            CMAJ7          G
|---0-----------|--3---------|--0-----------|---3------------|
|---0-----------|--0---------|--0-----------|---0------------|
|---0-----------|--0---------|--0-----------|---0------------|
|---2-----------|------------|--2-----------|---0------------|
|--3------------|------------|-3------------|----------------|
|--3------------|-3----------|-3------------|--3-------------|
 


 CMAJ7           G                 F       B       
|---0----------|---3--------------|--1-----2----|-------------------------|
|---0----------|---0--------------|--1-----4----|-------------------------|
|---0----------|---0--------------|--2-----4----|-------------------------|
|---2----------|---0--------------|--------4----|-------------------------|
|--3-----------|------------0----1|-------2-----|-------------------------|
|--3-----------|--3-----3---------|-1-----------|----------------0--2--4--|
 


 A          A/G#          C#7add3 C#7addb3  F#m             B7          E               
|-------------------------|----------------|--2--------------2-------|---0---------------|------
|--2--------------2-------|----5----4------|--2--------------4-------|---0---------------|------
|--2--------------2-------|----4----4------|--2--------------2-------|---1---------------|------
|--2--------------2-------|----3----3------|--4--------------4-------|---2---------------|-2-1-0
|0------------------------|--4-4--4--------|----------------2--------|---2---------------|------
|---------------4---------|----------------|-2-----------------------|--0----------------|-0-2-4
  



  A             Bbdim       Badd9    C#7add3       C#7addb3  C#dim     F#m 
|-------------------------|-----4-----------------|-------------------|-----2----------2----|
|---2--------------2------|-----4---------5-------|---4--------3------|-----2----------2----|
|---2--------------0------|----4----------4-------|---4--------4------|-----2----------2----|
|--2---------------2------|-------------3---------|--3--------3-------|----2----------2-----|
|-0---------------1------ |--2---------4----------|-4--------4--------|---------------------|
|-------------------------|-----------------------|-------------------|--2---------2--------|
 

    B   B/C bass      C#m     E            A     A        
|-----------------|-----------0--------|-----------------|
|---4---4---------|----5------0--------|---2-----2-------|
|---4---4---------|----6------1--------|---2-----2-------|
|--4----4---------|----6------2--------|---2-----2-------|
|-2----3----------|--4--------2--------|--0-----0--------|
|-----------------|----------0---------|-----------------|
 



                      C                                    Emaj7
|--------------------|-----------------|-----------------|---4--------------|
|-5---------5--------|-1---------------|-----------------|---4--------------|
|-5---------5--------|-0---------------|-----------------|---4--------------|
|-4---------2--------|-2---------------|-----------------|---2--------------|
|--------------------|-3---------------|-----------------|------------------|
|-4---------2--------|-----------------|-----------------|---0--------------|
  




transcribed by trevor berns
Comments