Simon Paul - Kodachrome Chords & Tabs

 

Kodachrome Chords & Tabs

Simon Paul Chords & Tabs

Version: 1 Type: Tab 0 ratings
1 star 2 stars 3 stars 4 stars 5 stars
comments

Kodachrome Tab

   
#----------------------------------PLEASE NOTE---------------------------------#
#This file is the author's own work and represents their interpretation of the #
#song. You may only use this file for private study, scholarship, or research. #
#------------------------------------------------------------------------------##
From: KeanJ@agresearch.cri.nz
Date: Mon, 03 Jul 1995 14:47 +1200 (NZST)


Kodachrome  - Paul Simon
~~~~~~~~~~
>From "There Goes Rhymin' Simon".
Transcribed and tabbed by John Kean (keanj@agresearch.cri.nz).

Drop-D tuning.
Capo 2nd fret.

4/4 time (mostly).


   D                             G/B   G
   , . , . , . , .   , . , . , . , .   , . , . , . , .   , . , . , . , .
||---2-------2-----|---2-------2-----|-----------------|-----------------|
||---3-------3-----|---3-------3---3-|---0---0---0---0-|---0---0---0---0-|
||---2-------2-----|---2-------2---0-|---0---0---0---0-|---0---0---0---0-|
||-0---0-0-0---0-0-|-0---0-0-0-----0-|---0---0---0---0-|---0---0---0---0-|
||-----------------|-------------2---|---------5-------|---------5-------|
||-0-------0-------|-0-------0-------|-5---8/9-----8/9-|-5---8/9---5-4-3-|



  Em                A                 D                 Em      A7
  , . , . , . , .   , . , . , . , .   , . , . , . , .   , . , . , . , .
|---0---0---0---0-|---5---5---2-----|---2---2---2---2-|---0---0---0---0-||
|---0---0---0---0-|---2---2---2-5-3-|---3---3---3---3-|---0---0---2---2-||
|---0---0---0---0-|---2---2---2---0-|---2---2---2---2-|---0---0---0---0-||
|---2---2---2---2-|---2---2---2---2-|---0---0---0---0-|---2---2---2---2-||
|-----------------|-0-------0-------|-----------------|---------0---0---||
|-2---------------|-----------------|-0-------0-------|-2---2-----------||
                                              


   D       Dmaj7     D7                G
   , . , . , . , .   , . , . , . , .   , . , . , . , .   , . , . , . , .
||-----------------|-----------2---2-|-----------------|-----------------|
||---3---3---2---2-|---1---1---1---1-|---0---0---0---0-|---0---0---0---0-|
||---2---2---2---2-|---2---2---2---2-|---0---0---0---0-|---0---0---0---0-|
||---0---0---0---0-|---0---0---0---0-|---0---0---0---0-|---0---0---0---0-|
||-----------------|-----------------|---------5-------|---------5-------|
||-0-------0-------|-0---------------|-5---8/9-----8/9-|-5-5-8/9---5-4-3-|
  


  Em                  A               D                 Em      A7
  , . , . , . , . 3/4 , . , . , . 4/4 , . , . , . , .   , . , . , . , .
|---0---0---0---0--|----0---0---0--|------2---------0-|---0---0---0---0-|
|---0---0---0---0--|----2---2---2--|------3---------0-|---0---0---2---2-|
|---0---0---0---0--|----0---0---0--|------2---------0-|---0---0---0---0-|
|---2---2---2---2--|----2---2---2--|------0-------0---|---2---2---2---2-|
|------------------|--0------------|------------------|---------0-------|
|-2----------------|---------------|--0-------0-------|-2---------------|
     


  D       Dmaj7     D7                G
  , . , . , . , .   , . , . , . , .   , . , . , . , .   , . , . , . , .
|-----------------|-----------2---2-|-----------------|-----------------|
|---3---3---2---2-|---1---1---1---1-|---0---0---0---0-|---0---0---0---0-|
|---2---2---2---2-|---2---2---2---2-|---0---0---0---0-|---0---0---0---0-|
|---0---0---0---0-|---0---0---0---0-|---0---0---0---0-|---0---0---0---0-|
|-----------------|-----------------|---------5-------|---------5-------|
|-0-------0-------|-0---------------|-5---8/9-----8/9-|-5-5-8/9---5-4-3-|
  


  Em                A                 D         D7
  , . , . , . , .   , . , . , . , .   , . , . , . , .
|---0---0---0---0-|---0---0---0---0-|---2-------2-----||
|---0---0---0---0-|---2---2---2---2-|---3-------1-----||
|---0---0---0---0-|---0---0---0---0-|---2-------2-----||
|---2---2---2---2-|---2---2---2---2-|-0---0-0-0---0-0-||
|-----------------|-0---------------|-----------------||
|-2---------------|-----------------|-0-------0-------||
     


   G       G/F#      Em                Am                D
   , . , . , . , .   , . , . , . , .   , . , . , . , .   , . , . , . , .
||-----------------|---0---0---0---0-|---0---0---0---0-|---2---2---2---2-|
||---0---0---0---0-|---0---0---0---0-|---1---1---1---1-|---3---3---3---3-|
||---0---0---0---0-|---0---0---0---0-|---2---2---2---2-|---2---2---2---2-|
||---0---0---0---0-|---2---2---2---2-|---2---2---2---2-|---0---0---0---0-|
||-----------------|-----------------|-0-------0-------|-----------------|
||-5-------4-------|-2---------------|-----------------|-0-------0-------|
  


  G                 C                 A                 D
  , . , . , . , .   , . , . , . , .   , . , . , . , .   , . , . , . , .
|---3---3---3---3-|---0---0---0---0-|---0---0---0---0-|---2---2---2---2-|
|---0---0---0---0-|---1---1---1---1-|---2---2---2---2-|---3---3---3---3-|
|---0---0---0---0-|---0---0---0---0-|---2---2---2---2-|---2---2---2---2-|
|---0---0---0---0-|---2---2---2---2-|---2---2---2---2-|---0---0---0---0-|
|-----------------|-3-------3-------|-0-------0-------|-----------------|
|-5-------5-------|-----------------|-----------------|-0-------0-------|
 


   G     G/F#      Em                Am                D
3/4, . , . , . 4/4 , . , . , . , .   , . , . , . , .   , . , . , . , .
|---------------|--------0---------|---0---0---0---0-|---2---2---2---2-|
|------0-----0--|------0-----0-----|---1---1---1---1-|---3---3---3---3-|
|----0-----0----|----0---------0---|---2---2---2---2-|---2---2---2---2-|
|--5-----4------|--2---------------|---2---2---2---2-|---0---0---0---0-|
|---------------|------------------|-0-------0-------|-----------------|
|--5-----4------|--2---------------|-----------------|-0-------0-------|


[ Tab from: http://www.guitartabs.cc/tabs/s/simon_paul/kodachrome_tab.html ]
  G                 C                 A7                D
  , . , . , . , .   , . , . , . , .   , . , . , . , .   , . , . , . , .
|---3---3---3---3-|---0---0---0---0-|---0---0---0---0-|---2---2---2---2-|
|---0---0---0---0-|---1---1---1---1-|---2---2---2---2-|---3---3---3---3-|
|---0---0---0---0-|---0---0---0---0-|---0---0---0---0-|---2---2---2---2-|
|---0---0---0---0-|---2---2---2---2-|---2---2---2---2-|---0---0---0---0-|
|-----------------|-3-------3-------|-0-------0-------|-----------------|
|-5-------5-------|-----------------|-----------------|-0-------0-------|
  


  G                 Bm                Em                A7
  , . , . , . , .   , . , . , . , .   , . , . , . , .   , . , . , . , .
|---3---3---3---3-|---2---2---2---2-|---0---0---0---0-|-----0-----------||
|---0---0---0---0-|---3---3---3---3-|---0---0---0---0-|-----2-----------||
|---0---0---0---0-|---4---4---4---4-|---0---0---0---0-|-----0-----------||
|---0---0---0---0-|---4---4---4---4-|---2---2---2---0-|-----2-----------||
|-----------------|-2---------------|-----------------|-0---0-----------||
|-5---------------|-----------------|-2---------------|-----------------||
  


   D       Dmaj7     D7                G
   , . , . , . , .   , . , . , . , .   , . , . , . , .   , . , . , . , .
||-----------------|-----------2---2-|-----------------|-----------------|
||---3---3---2---2-|---1---1---1---1-|---0---0---0---0-|---0---0---0---0-|
||---2---2---2---2-|---2---2---2---2-|---0---0---0---0-|---0---0---0---0-|
||---0---0---0---0-|---0---0---0---0-|---0---0---0---0-|---0---0---0---0-|
||-----------------|-----------------|---------5-------|---------5-------|
||-0-------0-------|-0---------------|-5---8/9-----8/9-|-5-5-8/9---5-4-3-|
  


  Em                A                 D                 Em      A7
  , . , . , . , .   , . , . , . , .   , . , . , . , .   , . , . , . , .
|---0---0---0---0-|---0---0---0---0-|---2---2---2---2-|---0---0---0---0-|
|---0---0---0---0-|---2---2---2---2-|---3---3---3---3-|---0---0---2---2-|
|---0---0---0---0-|---0---0---0---0-|---2---2---2---2-|---0---0---0---0-|
|---2---2---2---2-|---2---2---2---2-|---0---0---0---0-|---2---2---2---2-|
|-----------------|-0-------0-------|-----------------|---------0---0---|
|-2---------------|-----------------|-0-------0---0---|-2---2-----------|
  


  D       Dmaj7     D7                G
  , . , . , . , .   , . , . , . , .   , . , . , . , .   , . , . , . , .
|-----------------|-----------2---2-|-----------------|-----------------|
|---3---3---2---2-|---1---1---1---1-|---0---0---0---0-|---0---0---0---0-|
|---2---2---2---2-|---2---2---2---2-|---0---0---0---0-|---0---0---0---0-|
|---0---0---0---0-|---0---0---0---0-|---0---0---0---0-|---0---0---0---0-|
|-----------------|-----------------|---------5-------|---------5-------|
|-0-------0-------|-0---------------|-5---8/9-----8/9-|-5-5-8/9---5-4-3-|
  


  Em                  A               D         D7
  , . , . , . , . 3/3 , . , . , . 4/4 , . , . , . , .
|---0---0---0---0--|----0---0---0--|------2-----2-----||
|---0---0---0---0--|----2---2---2--|------3-----3-----||
|---0---0---0---0--|----0---0---0--|------2-----2-----||
|---2---2---2---2--|----2---2---2--|------0-----0-----||
|------------------|--0------------|------------------||
|-2----------------|---------------|--0-------0---0---||
 


   G       G/F#      Em                Am                D
   , . , . , . , .   , . , . , . , .   , . , . , . , .   , . , . , . , .
||-----------------|---0---0---0---0-|---0---0---0---0-|---2---2---2---2-|
||---0---0---0---0-|---0---0---0---0-|---1---1---1---1-|---3---3---3---3-|
||---0---0---0---0-|---0---0---0---0-|---2---2---2---2-|---2---2---2---2-|
||---0---0---0---0-|---2---2---2---2-|---2---2---2---2-|---0---0---0---0-|
||-----------------|-----------------|-0-------0-------|-----------------|
||-5-------4-------|-2---------------|-----------------|-0-------0-------|



  G                 C                 A                 D
  , . , . , . , .   , . , . , . , .   , . , . , . , .   , . , . , . , .
|---3---3---3---3-|---0---0---0---0-|---0---0---0---0-|---2---2---2---2-|
|---0---0---0---0-|---1---1---1---1-|---2---2---2---2-|---3---3---3---3-|
|---0---0---0---0-|---0---0---0---0-|---2---2---2---2-|---2---2---2---2-|
|---0---0---0---0-|---2---2---2---2-|---2---2---2---2-|---0---0---0---0-|
|-----------------|-3-------3-------|-0-------0-------|-----------------|
|-5-------5-------|-----------------|-----------------|-0-------0-------|
  


   G     G/F#      Em                Am                D
3/4, . , . , . 4/4 , . , . , . , .   , . , . , . , .   , . , . , . , .
|---------------|--------0---------|---0---0---0---0-|---2---2---2---2-|
|------0-----0--|------0-----0-----|---1---1---1---1-|---3---3---3---3-|
|----0-----0----|----0---------0---|---2---2---2---2-|---2---2---2---2-|
|--5-----4------|--2---------------|---2---2---2---2-|---0---0---0---0-|
|---------------|------------------|-0-------0-------|-----------------|
|--5-----4------|--2---------------|-----------------|-0-------0-------|
   


  G                 C                 A7                D
  , . , . , . , .   , . , . , . , .   , . , . , . , .   , . , . , . , .
|---3---3---3---3-|---0---0---0---0-|---0---0---0---0-|---2---2---2---2-|
|---0---0---0---0-|---1---1---1---1-|---2---2---2---2-|---3---3---3---3-|
|---0---0---0---0-|---0---0---0---0-|---0---0---0---0-|---2---2---2---2-|
|---0---0---0---0-|---2---2---2---2-|---2---2---2---2-|---0---0---0---0-|
|-----------------|-3-------3-------|-0-------0-------|-----------------|
|-5-------5-------|-----------------|-----------------|-0-------0-------|
 


  G                 Bm                Em
  , . , . , . , .   , . , . , . , .   , . , . , . , .   , . , . , . , .
|-------3---------|-------2---------|---0---0---0---0-|---0---0---0---0-||
|-------0---0-----|-------3---3-----|---0---0---0---0-|---0---0---0---0-||
|-----0-------0---|-----4-------4---|---0---0---0---0-|---0---0---0---0-||
|---0-----------0-|---4-----------4-|---2---2---2---0-|---2---2---2---2-||
|-----------------|-2---------------|-----------------|-----------------||
|-5---------------|-----------------|-2---------------|-----------------||
 


    G                 Bm                Em                    repeat and 
fade
    , . , . , . , .   , . , . , . , .   , . , . , . , .   , . , . , . , .
||--------3---------|-------2---------|---0---0---0---0-|---0---0---0---0--||
||--------0---0-----|-------3---3-----|---0---0---0---0-|---0---0---0---0--||
||*-----0-------0---|-----4-------4---|---0---0---0---0-|---0---0---0---0-*||
||*---0-----------0-|---4-----------4-|---2---2---2---0-|---2---2---2---2-*||
||------------------|-2---------------|-----------------|------------------||
||--5---------------|-----------------|-2---------------|------------------||
   
Comments