Simon And Garfunkel - The Boxer Chords & Tabs

 

The Boxer Chords & Tabs

Simon And Garfunkel Chords & Tabs

Version: 2 Type: Tab 0 ratings
1 star 2 stars 3 stars 4 stars 5 stars
comments

The Boxer Tab

  From: Nathan

  Tab: This is the violin solo for the boxer by simon and Garfunkel.
[ Tab from: http://www.guitartabs.cc/tabs/s/simon_and_garfunkel/the_boxer_tab_ver_2.html ]
||----------------------------------------------------------------8------||
||---------8-----------------------------8---8---8------------8-------8--||
||-9---9-----------------7---9---9---7---------------10---9--------------||
||-------------10---10---------------------------------------------------||
||-----------------------------------------------------------------------||
||-----------------------------------------------------------------------||


||-----------------------------------------------------------------------||
||-----8---10-------8----------------------------------------------------||
||-9------------9-------10---9---7---------------------------------------||
||-----------------------------------10----------------------------------||
||-----------------------------------------------------------------------||
||-----------------------------------------------------------------------||


   enjoy.
Comments