Simon And Garfunkel - Overs Chords & Tabs

 

Overs Chords & Tabs

Simon And Garfunkel Chords & Tabs

Version: 1 Type: Tab 0 ratings
1 star 2 stars 3 stars 4 stars 5 stars
comments

Overs Tab

#----------------------------------PLEASE NOTE---------------------------------#
#This file is the author's own work and represents their interpretation of the #
#song. You may only use this file for private study, scholarship, or research. #
#------------------------------------------------------------------------------##
From: KeanJ@agresearch.cri.nz
Date: Sun, 18 Jun 1995 17:16 +1200 (NZST)



Overs  - Simon & Garfunkel
~~~~~
>From "Bookends".
Transcribed an tabbed by John Kean (keanj@agresearch.cri.nz).

Capo 2nd fret.


4/4,   .   ,   .   ,   .   ,   .    ,   .   ,   .   ,   .   ,   .
||-----3--------------------------|-1-----------0h1p0--------------|
||----5------------5--------------|-3----------3--------3----------|
||---4-------------3--------------|-2---------2-------------2------|
||--5--------------5--------------|-3---------------------------3--|
||-3---------------4--------------|--------------------------------|
||--------------------------------|--------------------------------|
    


6/4,   .  ,  .  ,  .  ,  .  ,  .  ,  . 4/4,   .   ,   .   ,   .   ,   .
|------0--------------------------------|---------------------0----------|
|-----0---------------------------------|-----------------3--------------|
|----0----------2--0--------------------|-------------1------------------|
|---2-----------3--2--------3--2--------|---------0----------------------|
|--3------------------------3-----------|-----2--------------------------|
|------------------------------3-----1--|-0---------------------------0--|
  


  ,   .   ,   .   ,   .   ,   .    ,   .   ,   .   ,   .   ,   .
|--------------------------------|-0------------------------------|
|-1-------1-------3-------3------|-1-------1-------1-------1------|
|-2-------2-------2-------2------|-0-------0-------0-------0------|
|-3-------3-------3-------3------|-2-------2-------2-------2------|
|--------------------------------|-3-------2-------0--------------|
|-1-------1----1--1-------1----1-|-------------------------3---0--|
 


  ,   .   ,   .   ,   .   ,   .     ,   .   ,   .   ,   .   ,   .
|------1-------------------------|----------------------2----------|
|------1--0-------3-------1------|-(1---0h1p0-------1--------------|
|-2----2--0-------0-------0------|-)2-----------2------------------|
|-3-------2-------0-------2------|-(0---------------------------0--|
|-3---------------2-------0------|-)0------------------------------|
|-1-------0----------------------|-(2-----------------------2------|


  ,   .   ,   .   ,   .   ,   .    ,   .   ,   .   ,   .   ,   .
|------0-------0-------0---------|--------------------------------|
|-1-h3----3-------3--------------|---------1b------1--------------|
|--------------------------------|-------2-------------2----------|
|--------------------------------|-----0-------------------3------|
|-3-------2-------1-------0------|-----------------------------3--|
|--------------------------------|-1------------------------------|
            


  ,   .   ,   .   ,   .   ,   .    ,   .   ,   .   ,   .   ,   .
|------0--0------------0---------|------3-------------------------||
|------1--1-------3-------3------|-5----5----------3----2-\1------||
|---------0-------2------------2-|-4---------------2----0---------||
|---------2----0--3-------3------|-5---------------3--------------||
|--------------------------------|---------0----0-------0---------||
|--------------------------------|------------------------------0-||



    ,   .   ,   .   ,   .   ,   .     ,   .   ,   .   ,   .   ,   .
||----------0------(3-------3------|-(1-------1---0h1p0--------------|
||-(0-------0------)2-------2------|-)3-------3---3-------3----------|
||-)0-------0------(3-------3------|-(2-------2---2-----------2------|
||-(2-------2----2----------2------|-)3-------3-------------------3--|
||-)3-------3----------------------|---------------------------------|
||---------------------------------|---------------------------------|
       


6/4,   .  ,  .  ,  .  ,  .  ,  .  ,  .     ,   .   ,   .   ,   .   ,   .
|-(0------------------------------------|------------------0--------------|
|-)0------------------------------------|--------------3-------3----------|
|-(0------------------------------------|----------1---------------1------|
|-)2------------3--2--------------------|------0--------------------------|
|-(3------------------3-----3--------3--|-p2------------------------------|
|------------------------3-----3--0-----|------------------------------0--|
    


  ,   .   ,   .   ,   .   ,   .    ,   .   ,   .   ,   .   ,   .
|---------1---------------1------|-0------------------------------|
|-1-------1-------3-------3------|-1-------1-------1-------1------|
|-2-------2-------2-------2------|-0-------0-------0-------0------|
|-3-------3-------3-------3------|-2-------2-------2-------2------|
|------------------------------3-|---------2-------0--------------|
|-1-------1----1----------1------|-------------------------3------|
  

[ Tab from: http://www.guitartabs.cc/tabs/s/simon_and_garfunkel/overs_tab.html ]
  ,   .   ,   .   ,   .   ,   .     ,   .   ,   .   ,   .   ,   .
|------1-------------------------|----------------------2----------|
|------1--0-------3-------1------|-(1---0h1p0-------1--------------|
|-2----2--0-------0-------0------|-)2-----------2------------------|
|-3-------2-------0-------2------|-(0---------------------------0--|
|-3---------------2-------0------|-)0------------------------------|
|-1-------0----------------------|-(2-----------------------2------|
  


  ,   .   ,   .   ,   .   ,   .    ,   .   ,   .   ,   .   ,   .
|------0-------0-------0-------0-|--------------------------------||
|-1-h3----3-------3-------3------|---------1b------1--------------||
|-0-------0-------0-------0------|-------2-------------2----------||
|--------------------------------|-----0-------------------3------||
|-3-------2-------1-------0------|-----------------------------3--||
|--------------------------------|-1------------------------------||
                  


    ,   .   ,   .   ,   .   ,   .     ,   .   ,   .   ,   .   ,   .
||---------------------------------|---------------------------------|
||-(0------(0------(0------(0------|-(0------(0------(0------(0------|
||-)0------)2------)4------)2------|-)0------)2------)4------)2------|
||-(2------(2------(2------(2------|-(2------(2------(2------(2------|
||-------3-------3-------3-------3-|-------3-------3-------3---------|
||---------------------------------|---------------------------------|
 


3/4,   .   ,   .   ,   . 4/4,   .   ,   .   ,   .   ,   .
|-------------------------|--------------------------------|
|-(1----------------------|---------1---------------1------|
|-)0---------------2------|------2---------------2---------|
|-(2-----------2----------|----0---------------0-----------|
|-)3---2---0-----------3--|--------------------------------|
|-------------------------|-2---------------1--------------|


3/4,   .   ,   .   ,   . 4/4,   .   ,   .   ,   .   ,   .
|-------------------------|--------------------------------|
|-(1----------------------|---------1---------------1------|
|-)0---------------2------|------2---------------2---------|
|-(2-----------2----------|----0---------------0-----------|
|-)3---2---0-----------3--|--------------------------------|
|-------------------------|-2---------------1--------------|
  


  ,   .   ,   .   ,   .   ,   .    ,   .   ,   .   ,   .   ,   .
|--------------------------------|---------1------(1--------------||
|-----------------0-----------0--|-----3----------)1-------1------||
|-------------0-----------0------|-2--------------(1---1-------1--||
|---------2-----------2----------|-3--------------)3--------------||
|--------------------------------|--------------------------------||
|-0------------------------------|--------------------------------||
  


    ,   .   ,   .   ,   .   ,   .     ,   .   ,   .   ,   .   ,   .
||-(0-------0------(3-------3------|-(1-------1---------------1------|
||-)0-------0------)2-------2------|-)3-------3-----------1----------|
||-(0-------0------(3-------3------|-(2-------2-------1-----------1--|
||-)2-------2----2----------2----3-|----------3----------------------|
||-(3-------3----------------------|---------------------------------|
||---------------------------------|---------------------------------|
  


6/4,   .  ,  .  ,  .  ,  .  ,  .  ,  .     ,   .   ,   .   ,   .   ,   .
|-(0------0---0-------------------------|------------------0--------------|
|-)0------0---0-------------------------|--------------3-------3----------|
|-(0------0-----------------------------|----------1---------------1------|
|-)2------------3--2--------------------|------0--------------------------|
|-(3------------------3-----3--------3--|-p2------------------------------|
|------------------------3-----3--0-----|------------------------------0--|



  ,   .   ,   .   ,   .   ,   .    ,   .   ,   .   ,   .   ,   .
|-1-------1-------1-------1------|-0------------------------------|
|-1-------1-------3-------3------|-1-------1-------1-------1------|
|-2-------2-------2-------2------|-0-------0-------0-------0------|
|-3-------3-------3-------3------|-2-------2-------2-------2------|
|------------------------------3-|---------2-------0--------------|
|-1-------1----1----------1------|-------------------------3------|
    


  ,   .   ,   .   ,   .   ,   .     ,   .   ,   .   ,   .   ,   .
|------1--0---------------0------|-(2-------------------2----------|
|------1--0-------3-------1------|-)1---0h1p0-------1--------------|
|-2----2--0-------0-------0------|-(2-----------2------------------|
|-3-------2-------0-------2------|-)0---------------------------0--|
|-3---------------2-------0------|-(0------------------------------|
|-1-------0----------------------|-)2-----------------------2------|
  


  ,   .   ,   .   ,   .   ,   .    ,   .   ,   .   ,   .   ,   .
|--------------------------------|--------------------------------||
|--------------------------------|--------------------------------||
|--------------------------------|--------------------------------||
|--------------------------------|--------------------------------||
|-3------------------------------|--------------------------------||
|--------------------------------|-8--\7--\6--\5--\1--------------||
  ..
Comments