Simon And Garfunkel - Old Friends Chords & Tabs

 

Old Friends Chords & Tabs

Simon And Garfunkel Chords & Tabs

Version: 1 Type: Tab 0 ratings
1 star 2 stars 3 stars 4 stars 5 stars
comments

Old Friends Tab

   
----------------------------------PLEASE NOTE---------------------------------#
#This file is the author's own work and represents their interpretation of the #
#song. You may only use this file for private study, scholarship, or research. #
#------------------------------------------------------------------------------##

                         Old Friends ( Paul Simon )

                        from the Bookends album 1968



Transcribed by : Jean-Marc Orliaguet  
( jmo@fy.chalmers.se, http://fy.chalmers.se/~jmo )


Capo 4th fret


9/8 Fmaj7   Cmaj7                Fmaj7    Cmaj7              
e-|--0--------------------------|--0--------------------------|
B-|--1--------0-----------------|--1--------0-----------------|
G-|--2--------0-----------------|--2--------0-----------------|
D-|--3--------2-----------------|--3--------2-----------------|
A-|-----------3-----------------|-----------3-----------------|
E-|-----------------------------|-----------------------------|
 
    


6/8 Dm7                G7                C          C/B    Am
e-|--------0-----1-----1--------------|--0--------------------------------|
B-|--3--------------------------------|--------------3-----1--------------|
G-|--------0-----2--------------------|--------0--------------------------|
D-|--3-----------------------------0--|--------------------------------2--|
A-|-----------------------------------|--3-----------2-----0--------------|
E-|--------------------3--------------|-----------------------------------|

   


     G                                  
e-|-----------------------------------|-----------------------------------|
B-|--0-----1-----3-----1-----0-----1--|--0--------------------------------|
G-|-----------------------------------|--------0--------------------------|
D-|-----------------------------------|--------------0--------------------|
A-|--------0-----2-----0-----2-----0--|-----------------------------------|
E-|--3--------------------------------|--3-----------------3-----1-----0--|

   


    Am                                  Em/G
e-|-----------------------------------|-----------------------------------|
B-|--------------------1--------------|--------------------0--------------|
G-|--------------2--------------------|--------------0--------------------|
D-|--------2--------------------------|--------2--------------------------|
A-|--0--------------------------------|-----------------------------------|
E-|-----------------------------------|--3--------------------------------|

  


   Fmaj7             Cmaj7                               Cadd9
e-|--0--------------------------------|--0--------------------------------|
B-|--1-----------------0--------------|--0-----------------3--------------|
G-|--2--strum----------0--strum-------|--0--strum----------0--strum-------|
D-|--3-----------------2--------------|--2-----------------2--------------|
A-|--------------------3--------------|--3-----------------3--------------|
E-|-----------------------------------|-----------------------------------|




   Fmaj7             Cmaj7              Dm7                G7    
e-|--0--------------------------------|--------0-----1-----1--------------|
B-|--1-----------------0--------------|--3-----------------------0--------|
G-|--2-----------------0--------------|--------0-----2--------------------|
D-|--3-----------------2--------------|--3--------------------------------|
A-|--------------------3--------------|-----------------------------------|
E-|-----------------------------------|--------------------3-----------3--|

    


9/8 Fmaj7    Em7              6/8 Dm7               G7
e-|--0--------0--------0--------|--------0-----1-----1--------------|
B-|--1--------3--------3--------|--3-----------------------3--------|
G-|--2--------0-strum--0-strum--|--------0-----2-----------------0--|
D-|--3--------2--------2--------|--3--------------------------------|
A-|-----------2--------2--------|-----------------------------------|
E-|-----------0--------0--------|--------------------3--------------|

  


     C          C/B   Am            9/8  Am
e-|--0--------------------------------|--------------------------------|
B-|--------------3-----1--------------|--------------1-----------------|
G-|--------------------------2--------|----------2---------------------|
D-|--------2-----------------------2--|------2-------------------------|
A-|--3-----------2-----0--------------|--0-----------------------------|
E-|-----------------------------------|-----------------------0--------|

   

[ Tab from: http://www.guitartabs.cc/tabs/s/simon_and_garfunkel/old_friends_tab.html ]
     G                              6/8  Am
e-|-----------------------------------|-----------------------------------|
B-|--0---1---3---1---0----------------|--------------1--------------------|
G-|-----------------------0-----------|--------2----------------------2---|
D-|-----------------------------0-----|-----------------------------------|
A-|------0---2---0--------------------|--0-----------------0--------------|
E-|--3---------------3-------3-----3--|-----------------------------------|



     G                                   F
e-|-----------------------------------|----------------------------------|
B-|-----------------------------------|----------------------------------|
G-|--------------------0--------------|--------------------2-------------|
D-|--------------0--------------------|--------------3-------------------|
A-|--------2--------------------------|--------3-------------------------|
E-|--3--------------------------------|--1-------------------------------|

    


   Fmaj7             Cmaj7            
e-|--0--------------------------------|-----------------------------------|
B-|--1-----------------0--------------|--0--------------0-----------------|
G-|--2-----------------0--strum-------|--0--strum-------0--strum----------|
D-|--3-----------------2--------------|--2--------------2-----------------|
A-|--------------------3--------------|--3--------------3-----------------|
E-|-----------------------------------|-----------------------------------|

  


    Dm7               G7                 C              
e-|--------0-----1-----1-----0--------|-----------------------------------|
B-|--3-----------------------------3--|--0--------------------------------|
G-|--------0-----2--------------------|--0--------------------------------|
D-|--3--------------------------------|--2--------------------------------|
A-|--------------------------0-----2--|--3--------------------------------|
E-|--------------------3--------------|-----------------------------------|

  


     F                 Fm                Cmaj7
e-|-----------1-----------------1-------|--------------------0--------------|
B-|--------1-----1-----------1-----1----|--------------0-----------0--------|
G-|-----2-----------2-----1-----------1-|--------0-----------------------0--|
D-|--3-----------------3----------------|-----------------------------------|
A-|-------------------------------------|--3--------------------------------|
E-|-------------------------------------|-----------------------------------|

  


    Dm7                G7                Am
e-|--------0-----1--------------------|-----------------------------------|
B-|--3----------------(3)----0--------|--------------------1--3-----------|
G-|--2-----0-----2-----0--------------|--------------2--------------------|
D-|--3--------------------------------|--------2--------------------------|
A-|-----------------------------------|--0--------------------------------|
E-|--------------------3--------------|-----------------------------------|

    


9/8 Fmaj7      Cmaj7             6/8 Dm7               G7
e-|--0-----------------------------|--------0-----1-----1-----0--------|
B-|--1-----------0-----------------|--3-----------------------------3--|
G-|--2-----------0-----------------|--------0-----2--------------------|
D-|--3-----------2-----------------|--3--------------------------------|
A-|--------------3-----------------|-----------------------------------|
E-|--------------------------------|--------------------3--------------|

    


9/8 Am          Em7              6/8 Dm7               G7  
e-|--0-----------0-----------------|--------0-----1-----1--------------|
B-|--1-----------3-----------------|--3-----------------------0--------|
G-|--2--strum----0--strum----------|--------0-----2-----------------0--|
D-|--2-----------2-----------------|--3--------------------------------|
A-|--0-----------2-----------------|-----------------------------------|
E-|--------------0-----------------|--------------------3--------------|




     C          C/B    Am               Am 
e-|--0--------------------------------|-----------------------------------|
B-|--------------3-----1--------------|--1-----------------1--------------|
G-|--------0-----------------2--------|--------2-----------------2--------|
D-|--------------------------------2--|--------------2-----------------2--|
A-|--3-----------2-----0--------------|--0-----------------0--------------|
E-|-----------------------------------|-----------------------------------|
 
    


9/8 Fmaj7      Cmaj7               
e-|--0-----------0-----------------|
B-|--1-----------0-----------------|
G-|--2--strum----0--strum----------|
D-|--3-----------2-----------------|
A-|--------------3-----------------|
E-|--------------------------------|  
                                         




  


        jmo@fy.chalmers.se            http://fy.chalmers.se/~jmo
Comments