Simon And Garfunkel - At The Zoo Chords & Tabs

 

At The Zoo Chords & Tabs

Simon And Garfunkel Chords & Tabs

Version: 1 Type: Tab 0 ratings
1 star 2 stars 3 stars 4 stars 5 stars
comments

At The Zoo Tab

   
#----------------------------------PLEASE NOTE---------------------------------#
#This file is the author's own work and represents their interpretation of the #
#song. You may only use this file for private study, scholarship, or research. #
#------------------------------------------------------------------------------##
From: Jean Marc Orliaguet 
Subject: TAB : At The Zoo by Simon & Garfunkel ( Paul Simon )
Date: Sat, 10 Jun 1995 23:06:02 +0200 (MET DST)


                         At The Zoo ( Paul Simon )

                     From the Bookends album ( 1968 )



Transcribed and tabbed by Jean-Marc Orliaguet
( jmo@fy.chalmers.se  http://fy.chalmers.se/~jmo )



   Amaj7
e-|-----4-----------4--------|-----4-----------4--------|
B-|-----------2-----------2--|-----------2-----------2--|
G-|--------2-----2-----2-----|--------2-----2-----------|
D-|--------------------------|--------------------------|
A-|--0-----------------------|--0-----------------0-----|
E-|--------------------------|--------------------------|

    


   A7
e-|-----3-----------3--------|-----3-----------3--------|
B-|-----------2-----------2--|-----------2-----------2--|
G-|--------------2-----------|--------------2-----------|
D-|--------------------------|--------------------------|
A-|--0-----0-----------0-----|--0-----0-----------0-----|
E-|--------------------------|--------------------------|

   


   D7
e-|-----2--------------------|-----2--------------------|
B-|-----------1--0-----------|-----------1--0-----------|
G-|--------2-----------2-----|--------2-----------2-----|
D-|--0-----------------------|--0-----------------------|
A-|--------------------------|--------------------------|
E-|--------------------------|--------------------------|

       
             

   G                  G/F#      Em 
e-|--------------------------|--------------------------|
B-|-----------0-----0--------|-----0-----------0--------|
G-|-----------0-----0--------|-----------0-----------0--|
D-|--------------------------|--------2-----------2-----|
A-|--------------------------|--------------------------|
E-|--3-----------3-----2-----|--0-----------0-----------|

          

                  
                      Em/F#     G 
e-|--------------------------|-----------3--------3-----|
B-|-----0--------------------|-----------0--0-----0-----|
G-|-----------0-----0--------|-----------0--0-----0-----|
D-|--------2--------2--------|-----------0--0-----0-----|
A-|--------------------------|--------------------------|
E-|--0-----------0-----2-----|--3-----------------3-----|

                mm    mm       mmmm


                      G/F#      Em 
e-|-----3--------------------|-----------0--------0-----|
B-|-----0--0--------0--------|-----------0--0-----0-----|
G-|-----0--0--------0--------|-----------0--0-----0-----|
D-|-----0--0-----------------|-----------2--2-----2-----|
A-|--------------------------|--------------------2-----|
E-|--------------3-----2-----|--0-----------------0-----|

                mm    mm  mm   mmmm


                     Em/F#      G  
e-|-----0--------------------|-----------3--------3-----|
B-|-----0--------------------|-----------0--0-----0-----|
G-|-----0-----------0--------|-----------0--0-----0-----|
D-|-----2-----------2--------|-----------0--0-----0-----|
A-|--------------------------|--------------------------|
E-|--------0-----0-----2-----|--3-----------------3-----|

                 wo -  oo      wo - oh 


                     G/F#       Em
e-|-----3--------------------|-----------0--------0-----|
B-|-----0-----------0--------|-----------0--------0-----|
G-|-----0-----------0--------|-----------0--------0-----|
D-|-----0--------------------|-----------2--------2-----|
A-|--------------------------|--------------------2-----|
E-|--------3-----3-----2-----|--0-----------0-----0-----|

                mmm    mm mm       mmmm
 

                     Em/F#      G
e-|--------------------------|--------3--3--------------|
B-|-----0-----0-----0-----0--|--------0--0--------------|
G-|-----0-----0-----0-----0--|--------0--0--------------|
D-|--------------------------|--------0-----------------|
A-|--------------------------|--------------------------|
E-|--------0-----0-----2-----|--3-----------3-----2-----|

                 
[ Tab from: http://www.guitartabs.cc/tabs/s/simon_and_garfunkel/at_the_zoo_tab.html ]
               
    Em               Em/F#      G               G/F#
e-|--------0--0--------------|--------3--3--------------|
B-|--------0--0--------------|--------0--0--------------|
G-|--------0--0--------------|--------0--0--------------|
D-|--------2-----------------|--------0-----------------|
A-|--------------------------|--------------------------|
E-|--0-----------0-----2-----|--3-----------3-----2-----|



    Em               Em/F#      G               G/F#
e-|--------0--0--------------|--------3--3--------------|
B-|--------0--0--------------|--------0--0--------------|
G-|--------0--0--------------|--------0--0--------------|
D-|--------2-----------------|--------0-----------------|
A-|--------------------------|--------------------------|
E-|--0-----------0-----2-----|--3-----------3-----2-----|

   


    Em                          D7 
e-|--------0--0-----0--0--0--|--------2--2-----2--2--2--|
B-|--------0--0-----0--0--0--|--------1--1-----1--1--1--|
G-|--------0--0-----0--0--0--|--------2--2-----2--2--2--|
D-|--------2-----------2-----|--0-----0-----0-----0-----|
A-|--------------------------|--------------------------|
E-|--0-----------0-----------|--------------------------|

   

     
     D           D7             G                G/F#
e-|-----2-----2-----2--2--2--|--------3--3--------------|
B-|-----3-----3-----1--1--1--|--------0--0--------------|
G-|-----2-----2-----2--2--2--|--------0--0--------------|
D-|--0-----------------------|--------0-----------------|
A-|--------------------------|--------------------------|
E-|--------------------------|--3-----------3-----2-----|

                 


    Em               Em/F#      G               G/F#
e-|--------0--0--------------|--------3--3--------------|
B-|--------0--0--------------|--------0--0--------------|
G-|--------0--0--------------|--------0--0--------------|
D-|--------2-----------------|--------0-----------------|
A-|--------------------------|--------------------------|
E-|--0-----------0-----2-----|--3-----------3-----2-----|

    


    Em               Em/F#      G               G/F#
e-|--------0--0--------------|--------3--3--------------|
B-|--------0--0--------------|--------0--0--------------|
G-|--------0--0--------------|--------0--0--------------|
D-|--------2-----------------|--------0-----------------|
A-|--------------------------|--------------------------|
E-|--0-----------0-----2-----|--3-----------3-----2-----|

 


    Em                         A6
e-|--------0--0-----0--0--0--|-----2-----------2--------|
B-|--------0--0-----0--0--0--|-----------2-----------2--|
G-|--------0--0-----0--0--0--|--------2-----------2-----|
D-|--------2-----------2-----|--------------------------|
A-|--------------------------|--0-----------0-----------|
E-|--0-----------------------|--------------------------|

    


                               Em                         
e-|-----2-----------2--------|-----0-----------0--------|
B-|-----------2-----------2--|-----------0-----------0--|
G-|--------2-----------2-----|--------0-----------0-----|
D-|--------------------------|--------------------------|
A-|--0-----------0-----------|--------------------------|
E-|--------------------------|--0-----------0-----------|

                


                               A6
e-|-----0-----------0--------|-----2-----------2--------|
B-|-----------0-----------0--|-----------2-----------2--|
G-|--------0-----------0-----|--------2-----------2-----|
D-|--------------------------|--------------------------|
A-|--------------------------|--0-----------0-----------|
E-|--0-----------0-----------|--------------------------|



                               Em
e-|-----2-----------2--------|-----0-----------0--------|
B-|-----------2-----------2--|-----------0-----------0--|
G-|--------2-----------2-----|--------0-----------0-----|
D-|--------------------------|--------------------------|
A-|--0-----------0-----------|--------------------------|
E-|--------------------------|--0-----------0-----------|



                               Amaj7
e-|-----0-----------0--------|-----4-----------4--------||
B-|-----------0-----------0--|-----------2-----------2--||
G-|--------0-----------0-----|--------2-----2-----2-----||
D-|--------------------------|--------------------------||
A-|--------------------------|--0-----------------------||
E-|--0-----------0-----------|--------------------------||

                           



Chord voicing :

Amaj7 :   x02224
A7    :   x02223
D7    :   xx0212
D     :   xx0232
G     :   3x0003
Em    :   022000
A6    :   x02222







                  jmo@fy.chalmers.se  http://fy.chalmers.se/~jmo
Comments