Simmering - How Many Times Chords & Tabs

 

How Many Times Chords & Tabs

Simmering Chords & Tabs

Version: 1 Type: Tab 0 ratings
1 star 2 stars 3 stars 4 stars 5 stars
comments

How Many Times Tab

   
Standard Tuning: E B G D A E

Intro:

E|--5-5-x-5-x-5-5--5-5---6-6-x-6-x-6-6--6-6----|
B|--6-6-x-6-x-6-6--6-6---6-6-x-6-x-6-6--6-6----|
G|--5-5-x-5-x-5-5--5-5---0-0-x-0-x-0-0--0-0----|
D|-----------------------5-5-x-5-x-5-5--5-5----|
A|-----------------------6-6-x-6-x-6-6--6-6----|
E|---------------------------------------------| %Repeat 4 Times

Verses:
     Em7     Bm7   Am7
E|--7-7-7--7-7-7--5-5-5-7-7-5-5----------------|
B|--8-8-8--7-7-7--5-5-5-5-5-5-5----------------|
G|--7-7-7--7-7-7--5-5-5-5-5-5-5----------------|
D|--9-9-9--7-7-7--5-5-5-5-5-5-5----------------|
A|--7-7-7--x-x-x--x-x-x-x-x-x-x----------------|
E|---------7-7-7--5-5-5-5-5-5-5----------------|

Chorus:
 G                  Am
Your love is like a drug
       Bm        Am
It's pulling me in.
G             Am           Bm        Cm
I don't even know why I'm trying so hard.
[ Tab from: http://www.guitartabs.cc/tabs/s/simmering/how_many_times_tab.html ]
G                 Am
Why are you so blind?
    Bm          Ami
And why do you lie to me,
     G      Am       Bm Cm
How many...how many ti..mes?

Bridge: Play the intro chords for 4 measures.

Outro solo:

E|-------------------------------------------------------------|
B|-x7h8p7---------7h8p7------------------------x8b10r-7--------|
G|-x------9p7h9~~-------9-8-7~--------------------------9p7h9~-|
D|--------------------------------9\7--7\5~~~------------------|
A|------------------------------10----7------------------------|
E|-------------------------------------------------------------|

E|---------------------------------------|
B|---------------------------------------|
G|------------------------------7-7-9----|
D|--------------------7--7-9-7-9-9-------|
A|-9h10p9-7\6/7~--9-10-10----------------|
E|---------------------------------------|

Figure out the rest of what John's doing on your own. Make sure you line the bends up on 
b string with the corresponding notes on the e.
Comments