Silvertide - Sfc Chords & Tabs

 

Sfc Chords & Tabs

Silvertide Chords & Tabs

Version: 1 Type: Tab 0 ratings
1 star 2 stars 3 stars 4 stars 5 stars
comments

Sfc Tab

   
-------------------------------------------------------------------------------
			     S.F.C. - Silvertide
-------------------------------------------------------------------------------
Tabbed by: DetroitRockCity
Email: klstrider@comcast.net

This is what I have so far. Pretty much everything except for the solo and some
of Nicks Improvisations at the end of the verses.  It's all pretty easy.

Verse 1:

You're So Fuckin' Crazy
e|---------------------------------------------------------------------------|
B|-------------------2-2--x-x--2-2-------2-2---------------------------------|
G|-------------------2-2--x-x--2-2-------2-2---------------------------------|
D|-------------------2-2-x-x--2-2-------2-2---------------------------------|
A|---------------------------------------------------------------------------|
E|---------------------------------------------------------------------------|

Well, why don't you just try to see it all my way
e|---------------------------------------------------------------------------|
B|------2-2----------------------------2-2----------2-2----------------------|
G|------2-2----------------------------2-2----------2-2----------------------|
D|------2-2----------------------------2-2----------2-2----------------------|
A|---------------------------------------------------------------------------|
E|---------------------------------------------------------------------------|
      
      Caus I'm Really not liking what you have to say
e|---------------------------------------------------------------------------|
B|-1/2----------2-2------------------------2-2--------2-2-x--x--x-x-x--------|
G|-1/2----------2-2------------------------2-2--------2-2--x--x--x-x---------|
D|-1/2----------2-2------------------------2-2--------2-2---x--x-------------|
A|---------------------------------------------------------------------------|
E|---------------------------------------------------------------------------|
[ Tab from: http://www.guitartabs.cc/tabs/s/silvertide/sfc_tab.html ]
      You think you know it all. You think that I won't change
e|---------------------------------------------------------------------------|
B|-1\2--------2-2-------------------------------2-2----------2-2-4-4-3p0-----|
G|-1\2--------2-2-------------------------------2-2----------2-2-------------|
D|-1\2--------2-2-------------------------------2-2----------2-2-------------|
A|---------------------------------------------------------------------------|
E|---------------------------------------------------------------------------|
   But I'm really not listening to you anyway.
e|---------------------------------------------------------------------------|
B|----------2-2-------------------------2-2--2-2-----------------------------|
G|----------2-2-------------------------2-2--2-2-----------------------------|
D|----------2-2-------------------------2-2--2-2-----------------------------|
A|---------------------------------------------------------------------------|
E|---------------------------------------------------------------------------|
    
Chorus
  It's all your head. You're stuck in your head my friend
e|---------------------------------------------------------------------------|
B|---------------------------------------------------------------------------|
G|---------------------------------------------------------------------------|
D|--2--2--2--2---3--3--3--3---4--4--4--4--------------2-2-4-3----------------|
A|--2--2--2--2---3--3--3--3---4--4--4--4-------------2-2-4-3----------------|
E|--0--0--0--0---1--1--1--1---2--2--2--2-------------0-0-2-1----------------|

It's all your head. You're stuck in your head my friend
e|---------------------------------------------------------------------------|
B|---------------------------------------------------------------------------|
G|---------------------------------------------------------------------------|
D|--2--2--2--2---3--3--3--3---4--4--4--4--------------2-2-4-3----------------|
A|--2--2--2--2---3--3--3--3---4--4--4--4-------------2-2-4-3----------------|
E|--0--0--0--0---1--1--1--1---2--2--2--2-------------0-0-2-1----------------|
They should Lock You Up. In a padded room. You psycho, skitzo, loon. Your so 
e|---------------------------------------------------------------------------|
B|---------------------------------------------------------------------------|
G|---------------------------------------------------------------------------|
D|----------2--2--2--2---3--3--3--3---4--4-----------------------------------|
A|----------2--2--2--2---3--3--3--3---4--4----------------------------------|
E|----------0--0--0--0---1--1--1--1---2--2----------------------------------|

  Fuckin...                Crazy!!!              well I think your 
e|---------------------------------------------------------------------------|
B|------------------------0-2-0-2-0-2-0-3-2--0-2-0-2-0-2-0-3-2---------------|
G|------------------------0-2-0-2-0-2-0-2-2--0-2-0-2-0-2-0-2-2---------------|
D|------------------------0-2-0-2-0-2-0-2-2--0-2-0-2-0-2-0-2-2---------------|
A|---------------------------------------------------------------------------|
E|---------------------------------------------------------------------------|
     outta your mind
e|---------------------------------------------------------------------------|
B|--0-2-0-2-0-2-0-3-2--0-2-0-2-0-2-0-3-2-------------------------------------|
G|--0-2-0-2-0-2-0-2-2--0-2-0-2-0-2-0-2-2---(play as much as is needed)-------|
D|--0-2-0-2-0-2-0-2-2--0-2-0-2-0-2-0-2-2-------------------------------------|
A|---------------------------------------------------------------------------|
E|---------------------------------------------------------------------------|

  ...Precious time
e|---------------------------------------------------------------------------|
B|-----------------2-2---------------------2-2-------------------------------|
G|-----------------2-2---------------------2-2-------------------------------|
D|-----------------2-2---------------------2-2-------------------------------|
A|---------------------------------------------------------------------------|
E|---------------------------------------------------------------------------|
    
    
				The full moons out tonight.
e|---------------------------------------------------------------------------|
B|-----3---------------------2-----------------------------------------------|
G|-----3---------------------2-----------------------------------------------|
D|-----3---------------------2-----------------------------------------------|
A|---------------------------------------------------------------------------|
E|---------------------------------------------------------------------------|


| /  slide up
| \  slide down
| h  hammer-on
| p  pull-off
| ~  vibrato
| +  harmonic
| x  Mute note
===============================================================================
Comments