Silvertide - Mary Jayne Chords & Tabs

 

Mary Jayne Chords & Tabs

Silvertide Chords & Tabs

Version: 1 Type: Tab 1 rating
1 star 2 stars 3 stars 4 stars 5 stars
comments

Mary Jayne Tab

   
ROCK N ROLL!

the main riff
E---------------------------------------------------------------------------------
B---------------------------------------------------------------------------------
G---2-2--2-2------------------------------------------------------------------------
D---2-2--2-2------------------------------------------------------------------------
A---0-0--0-0-3p0-3p0-3p0-3-5----------------------------------------------------------
E---------------3---3---3------------------------------------------------------------
 lead
E----------------5--------------------------------------------------------
B--------------7b--5b-5b----------------------------------------------------
G---5h7-5h7-5h7------------------------------------------------------------
D--------------------------------------------------------------------------
A--------------------------------------------------------------------------
E-------------------------------------------------------------------------
[ Tab from: http://www.guitartabs.cc/tabs/s/silvertide/mary_jayne_tab.html ]
verse
E----------------------------------------------------------------
B----------------------------------------------------------------
G---2 LET RING----2-2-------------------------------------------
D---2-------------2-2--------------------------------------------
A---0-------------0-0--3p0-3p0-3p0-3-5------------------------------
E-------------------------3---3---3-----------------------------
chorus
E---------------------------------------------------------------------
B----------------------------------------------------------------------
G-----------5-5-------------------------------------------------------------
D--2-2------5-5--5let ring----------------------------------------------------------
A--2-2------3-3--5-------------------------------------------------------------
E--0-0-----------3-------------------------------------------------------------

bridge

    C D C GGGGGGGGGGG
SOLO!
E---S---------------------------15p12----------------------------------------------
B---S---15p12--15p12--15p12--15b-----15p12-------------------------------------------
G---S--------14-----14-----14-------------14p12--------------12----7PSB-7psb------------
D----------------------------------------------14b--14b-12h15-------------------------
A------------------------------------------------------------------------------------
E---------------------------------------------------------------------------------


ps= pick squeal
b= bend
h=hammer on 
p=pull off

intro(main riff) 3x
lead part of the intro 1x
verse 4x (i guess)
chorus 4x
maine riff 2x
verse
chorus
bridge 1x
solo 1x

GOOD SONG!!! 
Comments