Silvertide - Mary Jane Chords & Tabs

 

Mary Jane Chords & Tabs

Silvertide Chords & Tabs

Version: 1 Type: Tab 0 ratings
1 star 2 stars 3 stars 4 stars 5 stars
comments

Mary Jane Tab

   
------------------------------------------------------------------------------------------------------
			     Mary Jane - Silvertide
-------------------------------------------------------------------------------------------------------
Tabbed by: Tom_d00d

Tuning: Eadgbe
   
Intro
           (drum break) {    Repeat this 12 times       }    
e|--------------------------------------------------------------|
B|--------------------------------------------------------------|
G|----2--2--------------------2--2------------------------------|
D|----2--2--------------------2--2------------------------------| 
A|----0--0--------------------0--0--3p0-3p0-3p0------3p0--------|
E|--------------------------------------------------------3p0---|

Intro in The back ground just mess around after this part.
e|--------------------------------------------------------|
B|-------10h12-10h12-10h12-10h12-10h12--------------------|
G|--------------------------------------------------------|
D|--------------------------------------------------------|
A|--------------------------------------------------------|
E|--------------------------------------------------------|

Verses
       Let ring
e|---------------------------------------------------------------|
B|---------------------------------------------------------------|
B|---------------------------------------------------------------|
G|----2----------------------2--2--------------------------------|
D|----2----------------------2--2--------------------------------| 
A|----0----------------------0--0--3p0-3p0-3p0------3p0----------|
E|--------------------------------------------------------3p0----|
[ Tab from: http://www.guitartabs.cc/tabs/s/silvertide/mary_jane_tab.html ]
Chorus 
      Em    G5    A5
e|--------------------------------------------------------------------|
B|--------------------------------------------------------------------|
G|----------------2---------------------------------------------------|
D|--2-2-----5-5---2---------------------------------------------------|
A|--2-2-----5-5---0---------------------------------------------------|
E|--0-0-----3-3-------------------------------------------------------|

Bridge
       G    D      A5
e|-----3----2------------------------------------------------------|
B|----3-----3------------------------------------------------------|
G|----0-----2-----2------------------------------------------------|
D|----0-----0-----2------------------------------------------------|
A|----2------------0-----------------------------------------------|
E|----3------------------------------------------------------------|
 
Solo
                           T            T          Tap this unless you can alternate pick it
e|-----------------------17-12h15-17-12h15-------------------------|
B|------5/---------------------------------------------------------|
G|-----------------------------------------------------------------|
D|-----------------------------------------------------------------|
A|-----------------------------------------------------------------|
E|-----------------------------------------------------------------|

Improvise over these notes for the rest
e|------------12----15----------------------------------------------------|
B|----------------------------12---15-------------------------------------|
G|-------------------------------------------12----14---------------------|
D|---------------------------------------------------------12---14--------|
A|------------------------------------------------------------------------|
E|------------------------------------------------------------------------|

Song Order

Intro
Verse 1
Chrous
Verse 2
Chrous
Bridge
Solo
Chorus
Outro (verse riff)
Comments