Silvertide - Heart Strong Chords & Tabs

 

Heart Strong Chords & Tabs

Silvertide Chords & Tabs

Version: 1 Type: Tab 4 ratings
1 star 2 stars 3 stars 4 stars 5 stars
comments

Heart Strong Tab

Band - Silvertide
Song - Heartstrong     GOOD SONG!

Tuning: Standard

Intro:
e|--------0-----------0-----------0-------0---------------------------|
B|----------0-----------0-----------0-----0---------------------------|
G|------2-----2-----2-----2-----2-----2---2---------------------------|
D|----2-----------2-----------2-----------2---------------------------|
A|--0-----------0-----------0-------------0---------------------------|
E|----------------------------------------0---------------------------|

Verse:
e|--0-0-0-0-0-0-0-0---------------------------------0-0-0-0-0-0-0-0---|
B|--0-0-0-0-0-0-0-0---------------------------------0-0-0-0-0-0-0-0---|
G|--1-1-1-1-1-1-1-1-6-6-6-6-6-6-6-6-4-4-4-4-4-4-4-4-2-2-2-2-2-2-2-2---|
D|--2-2-2-2-2-2-2-2-6-6-6-6-6-6-6-6-4-4-4-4-4-4-4-4-2-2-2-2-2-2-2-2---|
A|--2-2-2-2-2-2-2-2-4-4-4-4-4-4-4-4-2-2-2-2-2-2-2-2-0-0-0-0-0-0-0-0---|
E|--0-0-0-0-0-0-0-0---------------------------------0-0-0-0-0-0-0-0---|
[ Tab from: http://www.guitartabs.cc/tabs/s/silvertide/heart_strong_tab.html ]
e|--0-0-0-0-0-0-0-0---------------------------------0-0-0-0-0-0-0-0---|
B|--0-0-0-0-0-0-0-0---------------------------------0-0-0-0-0-0-0-0---|
G|--1-1-1-1-1-1-1-1-6-6-6-6-6-6-6-6-4-4-4-4-4-4-4-4-2-2-2-2-2-2-2-2---|
D|--2-2-2-2-2-2-2-2-6-6-6-6-6-6-6-6-4-4-4-4-4-4-4-4-2-2-2-2-2-2-2-2---|
A|--2-2-2-2-2-2-2-2-4-4-4-4-4-4-4-4-2-2-2-2-2-2-2-2-0-0-0-0-0-0-0-0---|
E|--0-0-0-0-0-0-0-0---------------------------------0-0-0-0-0-0-0-0---|

e|--0-0-0-0-0-0-0-0---------------------------------------------------|
B|--0-0-0-0-0-0-0-0---------------------------------------------------|
G|--0-0-0-0-0-0-0-0---------------------------------------------------|
D|--2-2-2-2-2-2-2-2---------------------------------------------------|
A|--2-2-2-2-2-2-2-2---------------------------------------------------|
E|--0-0-0-0-0-0-0-0---------------------------------------------------|

Chorus:
e|--0-0-0-0-0-0-0-0---------------------------------0-0-0-0-0-0-0-0---|
B|--0-0-0-0-0-0-0-0-0-0-0-0-0-0-0-0-0-0-0-0-0-0-0-0-0-0-0-0-0-0-0-0---|
G|--1-1-1-1-1-1-1-1-2-2-2-2-2-2-2-2-4-4-4-4-4-4-4-4-2-2-2-2-2-2-2-2---|
D|--2-2-2-2-2-2-2-2-4-4-4-4-4-4-4-4-6-6-6-6-6-6-6-6-2-2-2-2-2-2-2-2---|
A|--2-2-2-2-2-2-2-2-4-4-4-4-4-4-4-4-6-6-6-6-6-6-6-6-0-0-0-0-0-0-0-0---|
E|--0-0-0-0-0-0-0-0---------------------------------0-0-0-0-0-0-0-0---|
Comments