Silvertide - Devils Daughter Chords & Tabs

 

Devils Daughter Chords & Tabs

Silvertide Chords & Tabs

Version: 1 Type: Bass Tab 0 ratings
1 star 2 stars 3 stars 4 stars 5 stars
comments

Devils Daughter Bass Tab

   
*Drop D*
this song shouldve been Silvertides first single

---------------------------------|
---------------------------------|
-/15-----------------------------|
------------\3-0-3---------------|

---------------------------------|
---------------------------------|
---------------------------------|     (*=Hit 8 Times)
-3*-6*-8*-10*--------------------|
im walkin up the stairs....

---------------------------------|
-7-6-5---------------------------|
------7-6-5-0--------------------|
---------------------------------|
[ Tab from: http://www.guitartabs.cc/tabs/s/silvertide/devils_daughter_btab.html ]
---------------------------------------------|
---------------------------------------------|
----6---665--1--6---------6-5--1-1-11----/15-|
-3-----------------8---3---------------------|
i went to bed....

---------------------------------|
---------------------------------|
---------------------------------|
--6XX8----/3-0-3-----------------|

during the solo:
---------------------------------|
---------------------------------|
---------------------------------|
-3-0-3--1-0-1--3-0-3--6--8-------|

little end dealy:
-----------------------------------------------------|
-7-6-5----------7-6-5---------7-6-5------------------|
-------7-6-5-7--------7-6-5b--------7-6-5-0-7-0-5-7--|
-----------------------------------------------------|
Comments