Silvertide - California Rain Chords & Tabs

 

California Rain Chords & Tabs

Silvertide Chords & Tabs

Version: 3 Type: Tab

California Rain Tab

   
   A        B5   G        D     A        B5   D        A
e|---------------------------------------------------------------------|
b|---------------------------------------------------------------------|
g|---------------------------------------------------------------------|
d|-------2----------------------------2--------------------------------|
a|-0--4-----2-------2--3--5-----0--4-----2----5--4--2--0-----------0---|
E|---------------3-------------------------------------------0--2------|
  A         B5                                G             D
e|--------------------------------------------3-------------2----------|
b|--------------------------------------------3-------------3----------|
g|--------------------------------------------0-------------2----------|
d|-------2----------------------------2-------0-------------0----------|
a|-0--4-----2-------2--3--5-----0--4-----2----2------------------------|
E|---------------3----------------------------3------------------------|
   E5                                                     
e|---------------------------------------------------------------------|
b|---------------------------------------------------------------------|
g|---------------------------------------------------------------------|
d|-2--2--2--2--2--2--2--2----------------------------------------------|
a|-2--2--2--2--2--2--2--2----------------------------------------------|
E|-0--0--0--0--0--0--0--0----------------------------------------------|

e|---------------------------------------------------------------------|
b|---------------------------------------------------------------------|
g|---------------------------------------------------------------------|
d|---2-----2-----------2--4--5----2-----2------------------------------|
a|---0-----0--3--0--4--0----------0-----0--3--0--4---------------------|
E|------3----------------------------3---------------------------------|

e|--------------------------------------------------------------------r|
b|--------------------------------------------------------------------e|
g|--------------------------------------------------------------------p|
d|-2--2---x-x-5--7--7--7--7---2--2---x-x------------------------------e|
a|-0--0---x-x-3--5--5--5--5---0--0---x-x-5--7--0--3--0--4--0----------a|
E|---------------------------------------3--5-------------------------t|
[ Tab from: http://www.guitartabs.cc/tabs/s/silvertide/california_rain_tab_ver_3.html ]