Silvertide - Aint Coming Home Chords & Tabs

 

Aint Coming Home Chords & Tabs

Silvertide Chords & Tabs

Version: 3 Type: Tab 0 ratings
1 star 2 stars 3 stars 4 stars 5 stars
comments

Aint Coming Home Tab

Band: Silvertide
Song: Ain't Comin' Home
Tabbed By: HeavnlyDisturbd

Solo
The solo comes in at 2:15.
1-------------------------|--------------------|---------------------------|
2-------------------------|-15------15------15-|------15------15-----------|
3-------------12----12-14-|----14------14------|-14------14------14--14----|
4--12/14--14-----14-------|--------------------|---------------------------|
5-------------------------|--------------------|---------------------------|
6-------------------------|--------------------|---------------------------|

1---------------------------------|------12-12------12-12------12-12-------|
2------------------------------15-|-15---------15---------15---------15----|
3--14---(14)\12-14\12----12-------|----------------------------------------|
4---------------------14----14----|----------------------------------------|
5---------------------------------|----------------------------------------|
6---------------------------------|----------------------------------------|
[ Tab from: http://www.guitartabs.cc/tabs/s/silvertide/aint_coming_home_tab_ver_3.html ]
1--12-12-|-15---15---15---15---12---------|--------------------------------|
2--------|--------------------------15-12-|-15---15---12-14-12----12-------|
3--------|--------------------------------|--------------------15----15-12-|
4--------|--------------------------------|--------------------------------|
5--------|--------------------------------|--------------------------------|
6--------|--------------------------------|--------------------------------|

1----------|-----------------|---------------------------------------------|
2----------|-----------------|---------------------------------------------|
3--12-(14)-|-----------------|---------------------------------------------|
4----------|---------5-7-5-7-|-5---7--------5------------------------------|
5----------|-7---7-----------|-------7--------7----------------------------|
6----------|-----------------|---------------------------------------------|

1----------------|-/4-5-0-0-0-0-------0-0-0----0-0-0------0--0--0----------|
2----------------|------5-5-5-5--5/7--7-7-7/8--8-8-8/10--10-10-10/13-------|
3----------------|---------------------------------------------------------|
4----------------|---------------------------------------------------------|
5----------------|---------------------------------------------------------|
6--6---5---4---0-|---------------------------------------------------------|

Well, there's the solo, I'm pretty sure it's 100% correct.
 Good Luck and rock on.
Comments