Silverstein - Your Sword Verses My Dagger Chords & Tabs

 

Your Sword Verses My Dagger Chords & Tabs

Silverstein Chords & Tabs

Version: 1 Type: Tab 0 ratings
1 star 2 stars 3 stars 4 stars 5 stars
comments

Your Sword Verses My Dagger Tab

   
 I'm Currently completely updating this tab, it is not yet done.


 Tabbed by: Alden Schulte
 Tuning:Drop-D
 (DADGBE)



           Guitar 1

 E|-------------------------------------------------------|
 B|-------------------------------------------------------|
 G|-------------------------------------------------------|
 D|--------2---3-2----------2---3-2-------------2---3-2---|
 A|--0p3p5---0--------0p3p5---0-----3-----0p3p5---0-------|
 D|-------------------------------------------------------|

                       |Fast Strumming|
 E|-------------------------------|
 B|-------------------------------|
 G|--------------------3~---------|
 D|--------2----3-2----3~--3~--2~-|
 A|--0p3p5---0------3--1~--3~--3~-|
 D|------------------------3~--3~-|

 E|-------------------------------------------------------|
 B|-------------------------------------------------------|
 G|-------------------------------------------------------|
 D|--------2---3-2----------2---3-2-------------2---3-2---|
 A|--0p3p5---0--------0p3p5---0-----3-----0p3p5---0-------|
 D|-------------------------------------------------------|

                       |Fast Strumming|
 E|-----------------------------------|
 B|-----------------------------------|
 G|--------------------10~--12~--9~---|
 D|--------2---3-2------x----x---x~---|
 A|--0p3p5---0-----3----8~--10~--7~---|
 D|-----------------------------------|

              I tabbed out the strumming patten.
 E|-------------------------------------------------|
 B|-------------------------------------------------|
 G|---------3333-------------------5-55-55-55-5555--|
 D|--0000---3333---3-33-33-33-3333-5-55-55-55-5555--|
 A|--0000---1111---3-33-33-33-3333-3-33-33-33-3333--|
 D|--0000----------3-33-33-33-3333------------------|

 E|-------------------------------------------------|
 B|-------------------------------------------------|
 G|---------3333------------------------------------|
 D|--0000---3333---3-33-33-33-3333-2-22-22-22-2222--|
 A|--0000---1111---3-33-33-33-3333-2-22-22-22-2222--|
 D|--0000----------3-33-33-33-3333-2-22-22-22-2222--|
[ Tab from: http://www.guitartabs.cc/tabs/s/silverstein/your_sword_verses_my_dagger_tab.html ]
 
 E|-----------------------------------|
 B|-----------------------------------|
 G|-33-33-33-33-3333-55-55-55-55-5555-|
 D|-33-33-33-33-3333-55-55-55-55-5555-|
 A|-11-11-11-11-1111-33-33-33-33-3333-|
 D|-----------------------------------|


 E|---------------------------------------|
 B|---------------------------------------|
 G|---------------------------------------|
 D|--------2---3-2------------2---3-2-----|
 A|--0p3p5---0-----3----0p3p5---0-----3---|
 D|---------------------------------------|


 E|-----------------------------------|
 B|-----------------------------------|
 G|-33-33-33-33-3333-55-55-55-55-5555-|
 D|-33-33-33-33-3333-55-55-55-55-5555-|
 A|-11-11-11-11-1111-33-33-33-33-3333-|
 D|-----------------------------------|


 E|---------------------------------------|
 B|---------------------------------------|
 G|---------------------------------------|
 D|--------2---3-2------------2---3-2-----|
 A|--0p3p5---0-----3----0p3p5---0-----3---|
 D|---------------------------------------|


 E|-----------------------------------|
 B|-----------------------------------|
 G|-33-33-33-33-3333-55-55-55-55-5555-|
 D|-33-33-33-33-3333-55-55-55-55-5555-|
 A|-11-11-11-11-1111-33-33-33-33-3333-|
 D|-----------------------------------|

 E|-------------------------------------|
 B|-------------------------------------|
 G|-------------------------------------|
 D|--0-00-00-00-0000----3-33-33-33-3333-|
 A|--0-00-00-00-0000----3-33-33-33-3333-|
 D|--0-00-00-00-0000----3-33-33-33-3333-|


 E|-----------------------------------|
 B|-----------------------------------|
 G|-33-33-33-33-3333-55-55-55-55-5555-|
 D|-33-33-33-33-3333-55-55-55-55-5555-|
 A|-11-11-11-11-1111-33-33-33-33-3333-|
 D|-----------------------------------|


   Bridge

 E|-----------------------------------------------------------------|
 B|-----------------------------------------------------------------|
 G|-----------------------------------------------------------------|
 D|-1b~-00-0-00--0000--00-0-00--0000--00-0-00--0000-|
 A|-1b~-00-0-00--0000--00-0-00--0000--00-0-00--0000-|
 D|-1b~-00-0-00--0000--00-0-00--0000--00-0-00--0000-|
P.M.    ** * **  ****  ** * **  ****  ** * **  ****


 E|
 B|
 G|
 D|
 A|
 D|


I'm Currently completely updating this tab, it is not yet done.



 Rate my Tab Please and have fun with it!
Comments