Silverstein - Smile In Your Sleep Chords & Tabs

 

Smile In Your Sleep Chords & Tabs

Silverstein Chords & Tabs

Version: 7 Type: Tab

Smile In Your Sleep Tab

   
Smile in Your Sleep
 Silverstein
Discovering The Waterfront
 Standard Tuning

When I first submitted this it was screwed up, I fixed the parts that sucked and now im
it is perfect.


intro/verse  Guitar 1 x3 first time x2 second time

senses fail guy or whatever you name is, thanks for catching my mistake i accidently 
the tapping part thank you for catching that mistake

Tapping
E--------------------|---------------------|
B--------------------|---------------------|
G--------------------|---------------------|
D---9------9-17---16-|---9-19---9-16---17--|
A-7---15-7------7----|-7------7------7-----|
E--------------------|---------------------|


E--------------------|--------------------|
B--------------------|--------------------|
G--------------------|--------------------|
D---5-12---5-14---12-|---5-16---5-12---14-|
A-3------3------3----|-3------3------3----|
E--------------------|--------------------|

E--------------------|--------------------|
B--------------------|--------------------|
G--------------------|--------------------|
D---7-17---7-16---14-|---7-12---7-14---16-|
A-5------5------5----|-5------5------5----|
E--------------------|--------------------|

Chorus

guitar 1
E-------------------------------------------------------------------|
B-------------------------------------------------------------------|
G-99999999999999999999999999999999-55555555555555555555555555555555-|
D-99999999999999999999999999999999-55555555555555555555555555555555-|
A-77777777777777777777777777777777-33333333333333333333333333333333-|
E-------------------------------------------------------------------|

            (4x)             (2x)       (1x)       (3x)    end on
|-------------------|---------------|-----------|---------|------|
|-------------------|---------------|-----------|---------|------|
|-------------------|---------------|-----------|-----7---|-7*---|
|-------9---7----55-|----5---5---44-|----5---5--|-4-5-----|------|
|----77---7---7-----|-33---3---3----|-33---3----|---------|------|
|-------------------|---------------|-----------|---------|------|
p.m. ..   .   .       ..   .   .      ..   .      . .

guitar 2
E------------------------------------------------------------------|
B------------------------------------------------------------------|
G-9999999999999999999999999999999-55555555555555555555555555555555-|
D-9999999999999999999999999999999-55555555555555555555555555555555-| x2
A-7777777777777777777777777777777-33333333333333333333333333333333-|
E------------------------------------------------------------------|

guitar 1 do verse

guitar 2 has a verse part here x2

E------------------------------------|
B------------------------------------|
G------------------------------------|
D------------------------------------|
A-777777777777777-5555555555555555---|
E-555555555555555-3333333333333333---|
PM................ ................

Chorus

Bridge
Both Guitars
E------------------------------------------------|
B------------------------------------------------|
G-------------------------5-5--5-5-5--7-7--5-5-5-|
D-2-2--2-2-2--2-2--2-2-2--5-5--5-5-5--7-7--5-5-5-|
A-2-2--2-2-2--2-2--2-2-2--3-3--3-3-3--5-5--3-3-3-|
E-0-0--0-0-0--0-0--0-0-0-------------------------|

guitar 1 x1

E-----------------------------------------------------------------------------------------------------|
B------------------<7><7>------------------------<7><7>------------------------<7><7>-----------------|
G------------<5><5>------<7><7>------------<5><5>------<7><7>-5-5--5-5-5-<5><5>------<7><7>----7-7--5-|
D-2-2--2-2-2--------------------2-2--2-2-2--------------------5-5--5-5-5-----------------------7-7--5-|
A-2-2--2-2-2--------------------2-2--2-2-2--------------------3-3--3-3-3-----------------------5-5--3-|
E-0-0--0-0-0--------------------0-0--0-0-0------------------------------------------------------------|

E-----|
B-----|
G-5-5-|
D-5-5-|
A-3-3-|
E-----|

Guitar 2
E------------------------------------------------|
B------------------------------------------------|
G-------------------------5-5--5-5-5--7-7--5-5-5-|
D-2-2--2-2-2--2-2--2-2-2--5-5--5-5-5--7-7--5-5-5-|
A-2-2--2-2-2--2-2--2-2-2--3-3--3-3-3--5-5--3-3-3-|
E-0-0--0-0-0--0-0--0-0-0-------------------------|
[ Tab from: http://www.guitartabs.cc/tabs/s/silverstein/smile_in_your_sleep_tab_ver_7.html ]
guitar 1 x2
E--------------------------------------------------------------|
B--------------------------------------------------------------|
G---10-10-10-13-13-13-13-12-12-12-12-10-10-10-10-10-10-10-10---|
D----x--x--x--x--x--x--x--x--x--x--x--x-x--x--x-x--x--x--x---|
A----8--8--8-11-11-11-11-10-10-10-10--8--8--8--8--8--8--8--8---|
E--------------------------------------------------------------|


E------------------------------------------------------------|
B------------------------------------------------------------|
G--13-13-13-12-12-12-12-12-12-12-12-10-10-10-10-13-13-13-13--|
D---x--x--x--x--x--x--x--x--x--x--x--x--x--x--x--x--x--x-x--|
A--11-11-11-10-10-10-10-10-10-10-10--8--8--8--8-11-11-11-11--|
E------------------------------------------------------------|


E--------------------------------------------------------------------------|
B--------------------------------------------------------------------------|
G---12-12-12-10-10-10-10-10-10-10-10-13-13-13-13-12-12-12-12-10-10-10-10---|
D----x--x--x--x--x--x--x--x--x--x--x--x--x--x--x--x--x--x--x--x--x--x--x---|
A---10-10-10--8--8--8--8--8--8--8--8--11-11-11-11-10-10-10-10-8--8--8--8---|
E--------------------------------------------------------------------------|


E---------------------------------------------------------------------|
B---------------------------------------------------------------------|
G-15151515151515151515151515151515-13131313131313131313131313131313---|
D-x-x-x-x-x-x-x-x-x-x-x-x-x-x-x-x--x-x-x-x-x-x-x-x-x-x-x-x-x-x-x-x---|
A-13131313131313131313131313131313-11111111111111111111111111111111---|
E---------------------------------------------------------------------|


E----------------------------------------------------------------------|
B----------------------------------------------------------------------|
G-15151515151515151515151515151515-17171717171717171717171717171717----|
D--x-x-x-x-x-x-x-x-x-x-x-x-x-x-x-x--x-x-x-x-x-x-x-x-x-x-x-x-x-x-x-x----|
A-13131313131313131313131313131313-15151515151515151515151515151515----|
E----------------------------------------------------------------------|

interlude guitar 1 only TAPPING!!x2

E--------------------|--------------------|
B--------------------|--------------------|
G--------------------|--------------------|
D---9-17---9-17---17-|---9-19---9-19---19-|
A-7------7------7----|-7------7------7----|
E--------------------|--------------------|

E--------------------|--------------------|
B--------------------|--------------------|
G--------------------|--------------------|
D---9-21---9-21---21-|---9-21---9-21---21-|
A-7------7------7----|-7------7------7----|
E--------------------|--------------------|

E--------------------|--------------------|
B--------------------|--------------------|
G--------------------|--------------------|
D---5-17---5-17---17-|---5-16---5-16---16-|
A-3------3------3----|-3------3------3----|
E--------------------|--------------------|

E--------------------|--------------------|
B--------------------|--------------------|
G--------------------|--------------------|
D---7-17---7-17---17-|---7-14---7-14---14-|
A-5------5------5----|-5------5------5----|
E--------------------|--------------------|


chorus

guitar 1 x1
E------------------------------------------------|
B------------------------------------------------|
G-------------------------5-5--5-5-5--7-7--5-5-5-|
D-2-2--2-2-2--2-2--2-2-2--5-5--5-5-5--7-7--5-5-5-|
A-2-2--2-2-2--2-2--2-2-2--3-3--3-3-3--5-5--3-3-3-|
E-0-0--0-0-0--0-0--0-0-0-------------------------|

guitar 1 x1
E-----------------------------------------------------------------------------------------------------|
B------------------<7><7>------------------------<7><7>------------------------<7><7>-----------------|
G------------<5><5>------<7><7>------------<5><5>------<7><7>-5-5--5-5-5-<5><5>------<7><7>----7-7--5-|
D-2-2--2-2-2--------------------2-2--2-2-2--------------------5-5--5-5-5-----------------------7-7--5-|
A-2-2--2-2-2--------------------2-2--2-2-2--------------------3-3--3-3-3-----------------------5-5--3-|
E-0-0--0-0-0--------------------0-0--0-0-0------------------------------------------------------------|


E-----|
B-----|
G-5-5-|
D-5-5-|
A-3-3-|
E-----|

Outro both guitars

E-----------------|
B-----------------|
G-----------------|
D-4-4-4-4-4-4--2x-|
A-4-4-4-4-4-4--2x-|
E-2-2-2-2-2-2--0x-|
PM. . . . . .