Silverstein - Smile In Your Sleep Chords & Tabs

 

Smile In Your Sleep Chords & Tabs

Silverstein Chords & Tabs

Version: 6 Type: Tab

Smile In Your Sleep Tab

Intro
|-----------------------------------------------------|
|-8-8-8-8---8-7---10-10P7-8-8-8-8-8---8-7---10-10P7---|
|-----------------------------------------------------|
|---------9-----9-------------------9-----------------|
|-----------------------------------------------------|
|-----------------------------------------------------|


|-------------------------------------------------------------|
|-5-5-5-5---5-4---7-7p4-5--10-x-x-9-x-x-7-x-x-5-x-x-7-x-x-x-x-|
|-------------------------------------------------------------|
|---------6-----6---------------------------------------------|  x2
|-------------------------------------------------------------|
|-------------------------------------------------------------|

    Chorus
|---------------------------------------------------------------------|
|---------------------------------------------------------------------|
|-9999999999999999-9999999999999999-5555555555555555-5555555555555555-|
|-9999999999999999-9999999999999999-5555555555555555-5555555555555555-| x2
|-7777777777777777-7777777777777777-3333333333333333-3333333333333333-|
|---------------------------------------------------------------------|

Intro


|---------------------------------------------------------------|
|---------------------------------------------------------------|
|--------------------------------5-5-4-4-4-4-5-7-7-4-4-4-4-4-5--|
|--------------------------------3-3-2-2-2-2-3-5-5-2-2-2-2-2-3--|
|-2-2--2-2-2-2-2--2-2--2-2-2-2-2--------------------------------|
|-0-0--0-0-0-0-0--0-0--0-0-0-0-0--------------------------------|


    Chorus

|-------------------------------------------------------------------|
|----------------------7*-7*----------------------------7*-7*-------|
|----------------5*-5*-------7*-7*----------------5*-5*-------7*-7*-|
|-------------------------------------------------------------------|
|-2-2--2-2-2-2-2-------------------2-2--2-2-2-2-2-------------------|
|-0-0--0-0-0-0-0-------------------0-0--0-0-0-0-0-------------------|


|---------------------------------------------------|
|----------------------7*-7*------------------------|
|----------------5*-5*-------5*-5*------------------|
|-5-5--4-4-4-4-5-------------------7-7--4-4-4-4-4-5-|
|-3-3--2-2-2-2-3-------------------5-5--2-2-2-2-2-3-|
|---------------------------------------------------|

    Alternitive picking
|-------------------------------------------------------------|
|-10-10-10-10-13-13-13-13-12-12-12-12-10-10-10-10-10-10-10-10-|
|-------------------------------------------------------------|
|-------------------------------------------------------------|
|-------------------------------------------------------------|
|-------------------------------------------------------------|

[ Tab from: http://www.guitartabs.cc/tabs/s/silverstein/smile_in_your_sleep_tab_ver_6.html ]
|-------------------------------------------------------------|
|-13-13-13-13-12-12-12-12-12-12-12-12-10-10-10-10-13-13-13-13-|
|-------------------------------------------------------------|
|-------------------------------------------------------------|
|-------------------------------------------------------------|
|-------------------------------------------------------------|


|-------------------------------------------------------------------------|
|-12-12-12-12-10-10-10-10-10-10-10-10-13-13-13-13-12-12-12-12-10-10-10-10-|
|-------------------------------------------------------------------------|
|-------------------------------------------------------------------------|
|-------------------------------------------------------------------------|
|-------------------------------------------------------------------------|


|-------------------------------------------------------------------|
|-15151515151515151515151515151515-13131313131313131313131313131313-|
|-------------------------------------------------------------------|
|-------------------------------------------------------------------|
|-------------------------------------------------------------------|
|-------------------------------------------------------------------|


|-------------------------------------------------------------------|
|-15151515151515151515151515151515-17171717171717171717171717171717-|
|-------------------------------------------------------------------|
|-------------------------------------------------------------------| x2
|-------------------------------------------------------------------|
|-------------------------------------------------------------------|


|----------------------------------------------------------   -------|
|-9x9-9-11x11-11-13x13-13-13x13-13-9x9-9-8x8-8-9x9-9-6x6-6-   S------|
|----------------------------------------------------------   -L-----|
|----------------------------------------------------------x2 --I----|
|----------------------------------------------------------   ---D---|
|----------------------------------------------------------   ----E--|

Chorus

|--------------------------------------------------------------------|
|----------------------7*-7*----------------------------7*-7*--------|
|----------------5*-5*-------7*-7*----------------5*-5*-------7*-7*--|
|--------------------------------------------------------------------|
|-2-2--2-2-2-2-2-------------------2-2--2-2-2-2-2--------------------|
|-0-0--0-0-0-0-0-------------------0-0--0-0-0-0-0--------------------|


|------------------------------------------------------------|
|----------------------7*-7*---------------------------------|
|----------------5*-5*-------7*-7*---------------------------|
|-5-5--4-4-4-4-5-------------------7-7-4-4-4-4-4-4-4-4-4-4-2-|
|-3-3--2-2-2-2-3-------------------5-5-2-2-2-2-2-2-2-2-2-2-2-|
|----------------------------------------------------------0-|