Silverstein - Smile In Your Sleep Chords & Tabs

 

Smile In Your Sleep Chords & Tabs

Silverstein Chords & Tabs

Version: 4 Type: Tab 0 ratings
1 star 2 stars 3 stars 4 stars 5 stars
comments

Smile In Your Sleep Tab

Artist: Silverstein
Song: Smile in Your Sleep
Album: Discovering the Waterfront
Tabbed by: Danny B.

Standard Tuning

Listen to the song for exact rhythms.  Have fun.



Lead Guitar (light distortion)
============================================================================

Intro/Verse 1
e---------------------------------------------------------------------|
b---------------------------------------------------------------------|
g--------------12-11----14----11-12-------------12-11----14----11-12--|
d-----14-------------------------------14-----------------------------|
a--------15-14-------14----14-------14----15-14-------14----14--------|
E--12-----------------------------------------------------------------|

e--------------------------------------------------------|
b--------------------------------------------------------|
g-----------9-------11-------9-9-12-9-11-9-9-------9-11--|x3
d-----12------12----------12-----------------12-12-------|
a--10----10------10----10--------------------------------|(0:00-0:31)
E--------------------------------------------------------|


Chorus 1
e---------------------------------------------------------------|
b---------------------------------------------------------------|
g---------------------------------------------------------------|
d---------------------------------------------------------------|
a--14-14-12-12--14-14-12-12--14-14-12-12--10-10-9-9--10-10-9-9--|
E---------------------------------------------------------------|

e---------------------------------------15--|
b-------------------------------------------|
g-------------------------------------------|x1
d-------12------12------12------12----------|
a--9-10----9-10----9-10----9-10----9-10-----|(0:42-0:52)
E-------------------------------------------|


Verse 2
e---------------------------------------------------------------------|
b---------------------------------------------------------------------|
g--------------12-11----14----11-12-------------12-11----14----11-12--|
d-----14-------------------------------14-----------------------------|
a--------15-14-------14----14-------14----15-14-------14----14--------|
E--12-----------------------------------------------------------------|

e--------------------------------------------------------|
b--------------------------------------------------------|
g-----------9-------11-------9-9-12-9-11-9-9-------9-11--|x2
d-----12------12----------12-----------------12-12-------|
a--10----10------10----10--------------------------------|(0:52-1:12)
E--------------------------------------------------------|


Chorus 2
e---------------------------------------------------------------|
b---------------------------------------------------------------|
g---------------------------------------------------------------|
d---------------------------------------------------------------|
a--14-14-12-12--14-14-12-12--14-14-12-12--10-10-9-9--10-10-9-9--|
E---------------------------------------------------------------|

e---------------------------------------15--|
b-------------------------------------------|
g-------------------------------------------|x1
d-------12------12------12------12----------|
a--9-10----9-10----9-10----9-10----9-10-----|(1:24-1:34)
E-------------------------------------------|
[ Tab from: http://www.guitartabs.cc/tabs/s/silverstein/smile_in_your_sleep_tab_ver_4.html ]
e--15-15-14-14--------|
b--------------15-15--|
g---------------------|x3
d---------------------|
a---------------------|(1:47-1:53)
E---------------------|

e------------------------------------------------------------|
b------------------------------------------------------------|
g------------------------------------------------------------|x2
d--14-17-16-14-17-16-14-17-16-14-17-16-17-19-17-16-17-19-21--|
a------------------------------------------------------------|(1:55-2:20)
E------------------------------------------------------------|
tremolo picking


Interlude
e------------------------------------------------------------------------------------------------|
b------------------------------------------------------------------------------------------------|
g--------------12----12-------14-------14----14-------16-------16----16-------16-------16----16--|
d------------------------------------------------------------------------------------------------|
a-----14-15-14-------------14-------14-------------14-------14-------------14-------14-----------|
E--12-------------12----12-------12-------12----12-------12-------12----12-------12-------12-----|

e---------------------------------------------------------------------------------------------|
b---------------------------------------------------------------------------------------------|
g-------12------12---12------11------11---11-------12-------12----12--------------------------|x2
d--------------------------------------------------------------------------14-------14----14--|
a----10------10-----------10------10------------12-------12-------------12-------12-----------|(2:20-2:42)
E--8-------8-------8----8-------8-------8----10-------10-------10----10-------10-------10-----|


Chorus 3
e---------------------------------------------------------------|
b---------------------------------------------------------------|
g---------------------------------------------------------------|
d---------------------------------------------------------------|
a--14-14-12-12--14-14-12-12--14-14-12-12--10-10-9-9--10-10-9-9--|
E---------------------------------------------------------------|

e---------------------------------------15--|
b-------------------------------------------|
g-------------------------------------------|x1
d-------12------12------12------12----------|
a--9-10----9-10----9-10----9-10----9-10-----|(2:52-3:02)
E-------------------------------------------|

e--15-15-14-14--------|
b--------------15-15--|
g---------------------|x3
d---------------------|
a---------------------|(3:04-3:10)
E---------------------|



Rhythm Guitar (heavy distortion)
============================================================================

Chorus 1
e-------------|
b-------------|
g--9-5-x-9-5--|x1
d--9-5-x-9-5--|
a--7-3-x-7-3--|(0:31-0:52)
E--7-3-x-7-3--|


Verse 2
e-----------|
b-----------|
g-----------|x2
d--2-2------|
a------3-5--|(0:52-1:12)
E-----------|
each note represented played x16


Chorus 2
e-------------|
b-------------|
g--9-5-x-9-5--|x1
d--9-5-x-9-5--|
a--7-3-x-7-3--|(1:14-1:34)
E--7-3-x-7-3--|

e-----------|
b-----------|
g----5-7-4--|x4
d--2-5-7-4--|
a--2-3-5-2--|(1:34-2:20)
E--0--------|


Chorus 3
e-------------|
b-------------|
g--9-5-x-9-5--|x1
d--9-5-x-9-5--|
a--7-3-x-7-3--|(2:42-3:02)
E--7-3-x-7-3--|

e-------------|
b-------------|
g----5-7-4----|x1
d--2-5-7-4-2--|
a--2-3-5-2-2--|(3:02-3:13)
E--0-------0--|
Comments