Silverstein - Smile In Your Sleep Chords & Tabs

 

Smile In Your Sleep Chords & Tabs

Silverstein Chords & Tabs

Version: 3 Type: Tab 0 ratings
1 star 2 stars 3 stars 4 stars 5 stars
comments

Smile In Your Sleep Tab

   
-------------------------------------------------------------------------------
			     Smile in Your Sleep - Silverstein
-------------------------------------------------------------------------------
Tabbed by:
Email:Andrewtotheawesome@gmail.com

Tuning: Standard EADGBE


Intro:
(g1)
E|----------------------------------------------------------------------------|
b|----------------------------------------------------------------------------|
g|-------------------11-12-11-11-14-11-12--------------11-12-11-11-14-11-12---|
d|----------------------------------------------------------------------------|
a|----------------------------------------------------------------------------|
e|-12-12-12-12-12-12-----------------------12-12-12-12------------------------|

E|-----------------------------|
b|-----------------------------|
g|-7-7-7-9-7--12p11-7-7-9-7----|
d|-----------------------------|
a|-----------------------------|
e|-----------------------------|

(B1 & G2)
E|-------------------------------------------------------------------------------------|
b|-------------------------------------------------------------------------------------|
g|-------------------------------------------------------------------------------------|
d|-------------------------------------------------------------------------------------|
a|-7-7-7-7-7-7-r-7-7-7-7-7-7-r---------------------------------------------------------|
e|-----------------------------8-8-8-8-8-8-r-10-10-10-10-10-10r------------------------|

Verse:
(g1)
E|----------------------------------------------------------------------------|
b|----------------------------------------------------------------------------|
g|-------------------11-12-11-11-14-11-12--------------11-12-11-11-14-11-12---|
d|----------------------------------------------------------------------------|
a|----------------------------------------------------------------------------|
e|-12-12-12-12-12-12-----------------------12-12-12-12------------------------|

E|-----------------------------|
b|-----------------------------|
g|-7-7-7-9-7--12p11-7-7-9-7----|
d|-----------------------------|
a|-----------------------------|
e|-----------------------------|


(B1 & G2)
E|-------------------------------------------------------------------------------------|
b|-------------------------------------------------------------------------------------|
g|-------------------------------------------------------------------------------------|
d|-------------------------------------------------------------------------------------|
a|-7-7-7^7^7-7-r-7-7-7^7^7-7-r---------------------------------------------------------|
e|-----------------------------8-8-8^8^8-8-r-10-10-10^10^10-10-r-----------------------|

Chorus:
(G2)
E|-------------------------------------------------------------------------------------|
b|-------------------------------------------------------------------------------------|
g|-------------------------------------------------------------------------------------|x2
d|-9-9-9-9-9-9-9-9-9-9-9-9-9-9-9-9-----------------------------------------------------|
a|-7-7-7-7-7-7-7-7-7-7-7-7-7-7-7-7-10-10-10-10-10-10-10-10-10-10-10-10-10-10-10-10-----|
e|---------------------------------8--8--8--8--8--8--8--8--8--8--8--8--8--8--8--8------|

On the second time durring chorus:
(G1)
E|-------------------------------------------------------------------------------------|
b|-------------------------------------------------------------------------------------|
g|-------------------------------------------------------------------------------------|
d|-9-----10p9-----9----10p9----9----10p9----9----10p9----22p21----21-22p21---21--------|
a|---10-------10----10------10---10------10---10------10-------22---------22-----------|
e|-------------------------------------------------------------------------------------|

Verse:
(g1)
E|----------------------------------------------------------------------------|
b|----------------------------------------------------------------------------|
g|-------------------11-12-11-11-14-11-12--------------11-12-11-11-14-11-12---|
d|----------------------------------------------------------------------------|
a|----------------------------------------------------------------------------|
e|-12-12-12-12-12-12-----------------------12-12-12-12------------------------|

E|-----------------------------|
b|-----------------------------|
g|-7-7-7-9-7--12p11-7-7-9-7----|
d|-----------------------------|
a|-----------------------------|
e|-----------------------------|


(B1 & G2)
E|-------------------------------------------------------------------------------------|
b|-------------------------------------------------------------------------------------|
g|-------------------------------------------------------------------------------------|
d|-------------------------------------------------------------------------------------|
a|-7-7-7^7^7-7-r-7-7-7^7^7-7-r---------------------------------------------------------|
e|-----------------------------8-8-8^8^8-8-r-10-10-10^10^10-10-r-----------------------|
[ Tab from: http://www.guitartabs.cc/tabs/s/silverstein/smile_in_your_sleep_tab_ver_3.html ]
Chorus:
(G2)
E|-------------------------------------------------------------------------------------|
b|-------------------------------------------------------------------------------------|
g|-------------------------------------------------------------------------------------|x2
d|-9-9-9-9-9-9-9-9-9-9-9-9-9-9-9-9-----------------------------------------------------|
a|-7-7-7-7-7-7-7-7-7-7-7-7-7-7-7-7-10-10-10-10-10-10-10-10-10-10-10-10-10-10-10-10-----|
e|---------------------------------8--8--8--8--8--8--8--8--8--8--8--8--8--8--8--8------|

On the second time durring chorus:
(G1)
E|-------------------------------------------------------------------------------------|
b|-------------------------------------------------------------------------------------|
g|-------------------------------------------------------------------------------------|
d|-9-----10p9-----9----10p9----9----10p9----9----10p9----22p21----21-22p21---21--------|
a|---10-------10----10------10---10------10---10------10-------22---------22-----------|
e|-------------------------------------------------------------------------------------|

Bridge:
(B1 & G2)
E|-------------------------------------------------------------------------------------|
b|-------------------------------------------------------------------------------------|
g|-------------------------------------------------------------------------------------|
d|-9-9-9-9-9-9---9-9-9-9-9-9-----------------------------------------------------------|x5
a|-7-7-7^7^7-7-r-7-7-7^7^7-7-r-1010101010----12-12-9-9-9-9-----------------------------|
e|-----------------------------8-8-8^8^8-8-r-10-10-7^7^7-7-r---------------------------|

On the third time of Bridge:
(G1)
E|-------------------|
b|-20-20-19-19-------|
g|-------------19-19-|X as many as needed
d|-------------------|
a|-------------------|
e|-------------------|

The last two times of Bridge:
(G1)
E|-------------------------------------------------------------------------------------|
b|-------------------------------------------------------------------------------------|
g|-9-9-12-12-11-11-9-9-9-9-12-12-11-11-9-9-9-9-12-12-11-11-9-9-9-9-12-12-11-11-9-9-----|x as many as needed
d|-x-x-x--x--x--x--x-x-x-x-x--x--x--x--x-x-x-x-x--x--x--x--x-x-x-x-x--x--x--x--x-x-----|
a|-7-7-10-10-9--9--7-7-7-7-10-10-9--9--7-7-7-7-10-10-9--9--7-7-7-7-10-10-9--9--7-7-----|
e|-------------------------------------------------------------------------------------|

E|-------------------------------------------------------------------------------------|
b|-------------------------------------------------------------------------------------|
g|-14-14-14-14-14-14-12-12-12-12-12-12-14-14-14-14-14-14-16-16-16-16-16-16-------------|
d|-x--x--x--x--x--x--x--x--x--x--x--x--x--x--x--x--x--x--x--x--x--x--x--x--------------|
a|-12-12-12-12-12-12-10-10-10-10-10-10-12-12-12-12-12-12-14-14-14-14-14-14-------------|
e|-------------------------------------------------------------------------------------|

Verse:
(g1)
E|----------------------------------------------------------------------------|
b|----------------------------------------------------------------------------|
g|-------------------11-12-11-11-14-11-12--------------11-12-11-11-14-11-12---|
d|----------------------------------------------------------------------------|
a|----------------------------------------------------------------------------|
e|-12-12-12-12-12-12-----------------------12-12-12-12------------------------|

E|-----------------------------|
b|-----------------------------|
g|-7-7-7-9-7--12p11-7-7-9-7----|
d|-----------------------------|
a|-----------------------------|
e|-----------------------------|

(G2 & B1)
E|-------------|
b|-------------|
g|-------------|
d|-------------|x as many as needed
a|-7~----------|
e|----8~-10~---|

Chorus:
(G2)
E|-------------------------------------------------------------------------------------|
b|-------------------------------------------------------------------------------------|
g|-------------------------------------------------------------------------------------|x2
d|-9-9-9-9-9-9-9-9-9-9-9-9-9-9-9-9-----------------------------------------------------|
a|-7-7-7-7-7-7-7-7-7-7-7-7-7-7-7-7-10-10-10-10-10-10-10-10-10-10-10-10-10-10-10-10-----|
e|---------------------------------8--8--8--8--8--8--8--8--8--8--8--8--8--8--8--8------|

On the second time durring chorus:
(G1)
E|-------------------------------------------------------------------------------------|
b|-------------------------------------------------------------------------------------|
g|-------------------------------------------------------------------------------------|
d|-9-----10p9-----9----10p9----9----10p9----9----10p9----22p21----21-22p21---21--------|
a|---10-------10----10------10---10------10---10------10-------22---------22-----------|
e|-------------------------------------------------------------------------------------|

Bridge:
(B1 & G2)
E|-------------------------------------------------------------------------------------|
b|-------------------------------------------------------------------------------------|
g|-------------------------------------------------------------------------------------|
d|-9-9-9-9-9-9---9-9-9-9-9-9-----------------------------------------------------------|
a|-7-7-7^7^7-7-r-7-7-7^7^7-7-r-1010101010----12-12-9-9-9-9-----------------------------|
e|-----------------------------8-8-8^8^8-8-r-10-10-7^7^7-7-r---------------------------|

E|-------------------|
b|-20-20-19-19-------|
g|-------------19-19-|X as many as needed
d|-------------------|
a|-------------------|
e|-------------------|


| ^  Triplet linking 
| /  slide up
| \  slide down
| h  hammer-on
| p  pull-off
| ~  vibrato
| +  harmonic
| x  Mute note
===============================================================================
Comments