Silverstein - Smile In Your Sleep Chords & Tabs

 

Smile In Your Sleep Chords & Tabs

Silverstein Chords & Tabs

Version: 1 Type: Tab 1 rating
1 star 2 stars 3 stars 4 stars 5 stars
comments

Smile In Your Sleep Tab

   
Song = Smile In Your Sleep
Band = Silverstein
Album = Discovering the Waterfront
Tabber = Dumpy The Destroyer

Theres a couple tabs out there that have the notes for the tapping
intro and interlude but I have arranged it so it is easiest to play.


x = muted
\ = slide
PM = palm mute wherever indicated
~ = let ring
 = harmonic
[] = pinch harmonic



INTRO

Gtr. 1 - Clean
e|------------------------------------------------------------------------------|
b|------------------------------------------------------------------------------|
g|------------12---11-----14-----11---12-------------12---11-----14-----11---12-|
D|---9------9-----------9------9------------9-14---9-----------9------9---------|
A|-7---15-7------7----7------7------7-----7------7------7----7------7------7----|
E|------------------------------------------------------------------------------|

e|------------------------------------------------------------------------------|
b|------------------------------------------------------------------------------|
g|------------------------11------------------12-----11----------------------11-|
D|---5-12---5-14---12---5------5-12---14----7------7------14---7-12---7-14------|
A|-3------3------3----3------3------3-----5------5------5----5------5------5----|
E|------------------------------------------------------------------------------|
  This part is all tapped, use your fret hand to hit the root notes (everything
  under the below the 11th fret basically) and ur pick hand to tap the rest. 

Gtr. 2 - Distorion
e|------------------------------------------------------------------------------|
b|---------------------------------------------------------------------------x\-|
g|---------------------------------------------------------------------------x\-|
D|--------Comes in right before chrous-------------------pick slide----------x\-|
A|---------------------------------------------------------------------------x\-|
E|------------------------------------------------------------------------------|



CHORUS

Gtr. 1 - Distorted
e|------------------------------------------------------------------------------|
b|------------------------------------------------------------------------------|
g|------------------------------------------------------------------------------|
D|-take a rest from playing that-intro and kick on your distortion -------------|
A|-guitar one enters the second time--------------------------------------------|
E|------------------------------------------------------------------------------|

e|------------------------------------------------------------------------------|
b|------------------------------------------------------------------------------|
g|----------------------------------------------------------------pinch harmoic-|
D|-----9---9---7-7-----9---9---7-7-----5---5---4-4-----5---5---4-[4]------------|
A|-7-7---7---7-----7-7---7---7-----3-3---3---3-----3-3---3---3------------------|
E|------------------------------------------------------------------------------|
   ===   =   =     ===   =   =  PM ===   =   =     ===   =   =

Gtr. 2 - Distorted
e|------------------------------------------------------------------------------|
b|------------------------------------------------------------------------------|
g|-9-9-9-9-9-9-9-9-9-9-9-9-9-9-9-9-9-9-9-9-9-9-9-9-9-9-9-9-9-9-9-9--------------|
D|-9-9-9-9-9-9-9-9-9-9-9-9-9-9-9-9-9-9-9-9-9-9-9-9-9-9-9-9-9-9-9-9--------------|
A|-7-7-7-7-7-7-7-7-7-7-7-7-7-7-7-7-7-7-7-7-7-7-7-7-7-7-7-7-7-7-7-7--------------|
E|------------------------------------------------------------------------------|

e|------------------------------------------------------------------------------|
b|------------------------------------------------------------------------------|
g|-5-5-5-5-5-5-5-5-5-5-5-5-5-5-5-5-5-5-5-5-5-5-5-5-5-5-5-5-5-5-5-5--------------|
D|-5-5-5-5-5-5-5-5-5-5-5-5-5-5-5-5-5-5-5-5-5-5-5-5-5-5-5-5-5-5-5-5--------------|
A|-3-3-3-3-3-3-3-3-3-3-3-3-3-3-3-3-3-3-3-3-3-3-3-3-3-3-3-3-3-3-3-3--------------|
E|------------------------------------------------------------------------------|



VERSE     

Gtr. 1 - Clean
e|------------------------------------------------------------------------------|
b|------------------------------------------------------------------------------|
g|------------12---11-----14-----11---12-------------12---11-----14-----11---12-|
D|---9------9-----------9------9------------9-14---9-----------9------9---------|
A|-7---15-7------7----7------7------7-----7------7------7----7------7------7----|
E|------------------------------------------------------------------------------|
  
e|------------------------------------------------------------------------------|
b|------------------------------------------------------------------------------|
g|------------------------11------------------12-----11----------------------11-|
D|---5-12---5-14---12---5------5-12---14----7------7------14---7-12---7-14------|
A|-3------3------3----3------3------3-----5------5------5----5------5------5----|
E|------------------------------------------------------------------------------|

Gtr. 2 - Distorted
e|------------------------------------------------------------------------------|
b|------------------------------------------------------------------------------|
g|-9-9-9-9-9-9-9-9-9-9-9-9-9-9-9-9-9-9-9-9-9-9-9-9-9-9-9-9-9-9-9-9--------------|
D|-9-9-9-9-9-9-9-9-9-9-9-9-9-9-9-9-9-9-9-9-9-9-9-9-9-9-9-9-9-9-9-9--------------|
A|-7-7-7-7-7-7-7-7-7-7-7-7-7-7-7-7-7-7-7-7-7-7-7-7-7-7-7-7-7-7-7-7--------------|
E|------------------------------------------------------------------------------|
   ===========================PM==================================

e|------------------------------------------------------------------------------|
b|---------------------------------------------------------------------------x\-|
g|-5-5-5-5-5-5-5-5-5-5-5-5-5-5-5-5-7-7-7-7-7-7-7-7-7-7-7-7-7-7-7-7-----------x\-|
D|-5-5-5-5-5-5-5-5-5-5-5-5-5-5-5-5-7-7-7-7-7-7-7-7-7-7-7-7-7-7-7-7-----------x\-|
A|-3-3-3-3-3-3-3-3-3-3-3-3-3-3-3-3-5-5-5-5-5-5-5-5-5-5-5-5-5-5-5-5-----------x\-|
E|------------------------------------------------------------------------------|
   ===========================PM==================================



CHOURS 2

Gtr. 1 - Distorted
e|------------------------------------------------------------------------------|
b|------------------------------------------------------------------------------|
g|------------------------------------------------------------------------------|
D|----------rest again.---------------------------------------------------------|
A|------------------------------------------------------------------------------|
E|------------------------------------------------------------------------------|

e|------------------------------------------------------------------------------|
b|------------------------------------------------------------------------------|
g|----------------------------------------------------------------pinch harmoic-|
D|-----9---9---7-7-----9---9---7-7-----5---5---4-4-----5---5---4-[4]------------|
A|-7-7---7---7-----7-7---7---7-----3-3---3---3-----3-3---3---3------------------|
E|------------------------------------------------------------------------------|
   ===   =   =     ===   =   =  PM ===   =   =     ===   =   =

Gtr. 2 - Distorted
e|------------------------------------------------------------------------------|
b|------------------------------------------------------------------------------|
g|-9-9-9-9-9-9-9-9-9-9-9-9-9-9-9-9-9-9-9-9-9-9-9-9-9-9-9-9-9-9-9-9--------------|
D|-9-9-9-9-9-9-9-9-9-9-9-9-9-9-9-9-9-9-9-9-9-9-9-9-9-9-9-9-9-9-9-9--------------|
A|-7-7-7-7-7-7-7-7-7-7-7-7-7-7-7-7-7-7-7-7-7-7-7-7-7-7-7-7-7-7-7-7--------------|
E|------------------------------------------------------------------------------|

e|------------------------------------------------------------------------------|
b|------------------------------------------------------------------------------|
g|-5-5-5-5-5-5-5-5-5-5-5-5-5-5-5-5-5-5-5-5-5-5-5-5-5-5-5-5-5-5-5-5--------------|
D|-5-5-5-5-5-5-5-5-5-5-5-5-5-5-5-5-5-5-5-5-5-5-5-5-5-5-5-5-5-5-5-5--------------|
A|-3-3-3-3-3-3-3-3-3-3-3-3-3-3-3-3-3-3-3-3-3-3-3-3-3-3-3-3-3-3-3-3--------------|
E|------------------------------------------------------------------------------|



INTERLUDE PART 1

Gtr. 1 - Distorted
e|------------------------------------------------------------------------------|
b|------------------------------------------------------------------------------|
g|---------------------------------------5-----------5-----7-----------4--------|
D|---2-----------2-----2-----------2-----5-----------5-----7-----------4--------|
A|---2-----------2-----2-----------2---3-3---3-3-3-3-3---5-5---5-5-5-5-2--------|
E|-0-0---0-0-0-0-0---0-0---0-0-0-0-0--------------------------------------------|
   =     =======     =     ==PM===     =     =======     =     ======= 
[ Tab from: http://www.guitartabs.cc/tabs/s/silverstein/smile_in_your_sleep_tab.html ]
Gtr. 2 - Distorted
e|------------------------------------------------------------------------------|
b|------------------------------------------------------------------------------|
g|---------------------------------------5-----------5-----7-----------4--------|
D|---2-----------2-----2-----------2-----5-----------5-----7-----------4--------|
A|---2-----------2-----2-----------2---3-3---3-3-3-3-3---5-5---5-5-5-5-2--------|
E|-0-0---0-0-0-0-0---0-0---0-0-0-0-0--------------------------------------------|
   =     =======     =     ==PM===     =     =======     =     =======



INTERLUDE PART 2

Gtr. 1 - Clean
e|------------------------------------------------------------------------------|
b|------------------------------------------------------------------|
g|------------------------------------------------------|
D|------------------------------------------------------------------------------|
A|------------------------------------------------------------------------------|
E|------------------------------------------------------------------------------|

e|-------------------------------------------------hit distortion and----0~-----|
b|-------------------------------------------make some noise on----0~-----|
g|-------------------------------------the high strings like-0~-----|
D|-----------------------------------------------------------------------x------|
A|-----------------------------------------------------------------------x------|
E|-----------------------------------------------------------------------x------|

Gtr. 2 - Distorted
e|------------------------------------------------------------------------------|
b|------------------------------------------------------------------------------|
g|------------------------------------------------------------------------------|
D|---2-----------2---------------------------2-----------2----------------------|
A|---2-----------2---------------------------2-----------2----------------------|
E|-0-0---0-0-0-0-0-------------------------0-0---0-0-0-0-0----------------------|
   =     =======           PM              =     =======

e|------------------------------------------------------------------------0~----|
b|------------------------------------------------------------------------0~----|
g|---5-----------5---------------------------7-----------4----------------0~----|
D|---5-----------5---------------------------7-----------4----------------x-----|
A|-3-3---3-3-3-3-3-------------------------5-5---5-5-5-5-2----------------x-----|
E|------------------------------------------------------------------------x-----|
   =     =======           PM              =     =======



INTERLUDE PART 3

Gtr. 1 - Distorted
e|------------------------------------------------------------------------------|
b|------------------------------------------------------------------------------|
g|------tremolo pick this entire line-------------------------------------------|
D|------------------------------------------------------------------------------|
A|-14-17-16-14-14-17-16-16-14-17-16-14-14-17-16-17-19-19-17p16h17-17-19-19-21-21|
E|------------------------------------------------------------------------------|
  

Gtr. 2 - Distorted
e|--------------------------------------------------------------------------0~--|
b|--------------------------------------------------------------------------0~--|
g|---------------------------------------5-----------5-----7-----------4----0~--|
D|---2-----------2-----2-----------2-----5-----------5-----7-----------4----x---|
A|---2-----------2-----2-----------2---3-3---3-3-3-3-3---5-5---5-5-5-5-2----x---|
E|-0-0---0-0-0-0-0---0-0---0-0-0-0-0----------------------------------------x---|
   =     =======     =     ==PM===     =     =======     =     =======



INTERLUDE PART 4


Gtr. 1 - Clean
e|------------------------------------------------------------------------------|
b|------------------------------------------------------------------------------|
g|------------12---12-----14-----14---14------16-----16---16-----16-----16---16-|
D|---9------9-----------9------9------------9------9-----------9------9---------|
A|-7---15-7------7----7------7------7-----7------7------7----7------7------7----|
E|------------------------------------------------------------------------------|

e|------------------------------------------------------------------------------|
b|------------------------------------------------------------------------------|
g|-----12-----12---12-----11-----11---11------12-----12---12--------------------|
D|---5------5-----------5------5------------7------7-----------7-14---7-14---14-|
A|-3------3------3----3------3------3-----5------5------5----5------5------5----|
E|------------------------------------------------------------------------------|
  Same tapping technique and timing as the intro.

Gtr. 2 - Clean
e|------------------------------------------------------------------------------|
b|------------------------------------------------------------------------------|
g|------------------------------------------------------------------------------|
D|----------Feel free to make noise with a wah or echo, best pitch is E---------|
A|------------------------------------------------------------------------------|
E|------------------------------------------------------------------------------|



CHOURS 3

Gtr. 1 - Distorted
e|------------------------------------------------------------------------------|
b|------------------------------------------------------------------------------|
g|------------------------------------------------------------------------------|
D|----------rest again.---------------------------------------------------------|
A|------------------------------------------------------------------------------|
E|------------------------------------------------------------------------------|

e|------------------------------------------------------------------------------|
b|------------------------------------------------------------------------------|
g|----------------------------------------------------------------pinch harmoic-|
D|-----9---9---7-7-----9---9---7-7-----5---5---4-4-----5---5---4-[4]------------|
A|-7-7---7---7-----7-7---7---7-----3-3---3---3-----3-3---3---3------------------|
E|------------------------------------------------------------------------------|
   ===   =   =     ===   =   =  PM ===   =   =     ===   =   =

Gtr. 2 - Distorted
e|------------------------------------------------------------------------------|
b|------------------------------------------------------------------------------|
g|-9-9-9-9-9-9-9-9-9-9-9-9-9-9-9-9-9-9-9-9-9-9-9-9-9-9-9-9-9-9-9-9--------------|
D|-9-9-9-9-9-9-9-9-9-9-9-9-9-9-9-9-9-9-9-9-9-9-9-9-9-9-9-9-9-9-9-9--------------|
A|-7-7-7-7-7-7-7-7-7-7-7-7-7-7-7-7-7-7-7-7-7-7-7-7-7-7-7-7-7-7-7-7--------------|
E|------------------------------------------------------------------------------|

e|------------------------------------------------------------------------------|
b|------------------------------------------------------------------------------|
g|-5-5-5-5-5-5-5-5-5-5-5-5-5-5-5-5-5-5-5-5-5-5-5-5-5-5-5-5-5-5-5-5--------------|
D|-5-5-5-5-5-5-5-5-5-5-5-5-5-5-5-5-5-5-5-5-5-5-5-5-5-5-5-5-5-5-5-5--------------|
A|-3-3-3-3-3-3-3-3-3-3-3-3-3-3-3-3-3-3-3-3-3-3-3-3-3-3-3-3-3-3-3-3--------------|
E|------------------------------------------------------------------------------|



OUTRO

Gtr. 1 - Clean
e|------------------------------------------------------------------------------|
b|------------------------------------------------------------------|
g|------------------------------------------------------|
D|------------------------------------------------------------------------------|
A|------------------------------------------------------------------------------|
E|------------------------------------------------------------------------------|

e|-----------------------------------------------hit the distortion again-------|
b|-----------------------------------------and join the second guitar-----|
g|-------------------------------------------4--4--4--4--4--4-------|
D|-------------------------------------------------------4--4--4--4--4--4--2----|
A|-------------------------------------------------------2--2--2--2--2--2--2----|
E|-------------------------------------------------------------------------0----|
                                                         ========PM======

Gtr. 2 - Distorted
e|------------------------------------------------------------------------------|
b|------------------------------------------------------------------------------|
g|------------------------------------------------------------------------------|
D|---2-----------2---------------------------2-----------2----------------------|
A|---2-----------2---------------------------2-----------2----------------------|
E|-0-0---0-0-0-0-0-------------------------0-0---0-0-0-0-0----------------------|
   =     =======           PM              =     =======

e|------------------------------------------------------------------------------|
b|------------------------------------------------------------------------------|
g|---5-----------5---------------------------7-----------4--4--4--4--4--4-------|
D|---5-----------5---------------------------7-----------4--4--4--4--4--4--2----|
A|-3-3---3-3-3-3-3-------------------------5-5---2-2-2-2-2--2--2--2--2--2--2----|
E|-------------------------------------------------------------------------0----|
   =     =======           PM              =     ========================



                            ∂џмрч †нє ∂єς†ґΩчєг	
Comments