Silverstein - Smile In Your Sleep (perfect) Chords & Tabs

 

Smile In Your Sleep (perfect) Chords & Tabs

Silverstein Chords & Tabs

Version: 1 Type: Bass Tab 1 rating
1 star 2 stars 3 stars 4 stars 5 stars
comments

Smile In Your Sleep (perfect) Bass Tab

Smile In Your Sleep-Silverstein
This is a fairly easy tab,
with no tricky rhythms or solos,
so just have fun with it!

1st Verse:
G---------------------------------------------------------------------
D--------------------------------------------------------------------- x2
A--7-7-7--7-7-----7-7-7--7-7------------------------------------------
E------------------------------------8-8-8--8-8-----10-10-10--10-10---

Chorus:
G--------------------------------------------------------------------------------------
D--------------------------------------------------------------------------------------
A--77777777777777777777777777777777---------------------------------------------------- x2
E-----------------------------------8888888888888888-10101010101010101010101010101010--
                                                    *those are 10's NOT 1's
2nd Verse:
G---------------------------------------------------------------------
D--------------------------------------------------------------------- x2
A--7-7-7--7-7-----7-7-7--7-7------------------------------------------
E------------------------------------8-8-8--8-8-----10-10-10--10-10---
[ Tab from: http://www.guitartabs.cc/tabs/s/silverstein/smile_in_your_sleep_perfect_btab.html ]
Chorus:
G--------------------------------------------------------------------------------------
D--------------------------------------------------------------------------------------
A--77777777777777777777777777777777---------------------------------------------------- x2
E-----------------------------------8888888888888888-10101010101010101010101010101010--
                                                   
Breakdown:
G---------------------------------------------
D--------------------------------------------- x4 (on the 3rd and 4th Time, there is a BIG tempo drop,
A--77--777---7-7--777-------------------------     but still stick with the same notes and rhythms)
E-----------------------88--888---1010--777---

3rd Verse (Tempo goes back to normal):

G---------------------------------------------------------------------
D--------------------------------------------------------------------- x2
A--7~-------------7~--------------------------------------------------
E------------------------------------8~-------------10~---------------

Chorus:
G--------------------------------------------------------------------------------------
D--------------------------------------------------------------------------------------
A--77777777777777777777777777777777---------------------------------------------------- x2
E-----------------------------------8888888888888888-10101010101010101010101010101010--

Outro:
G---------------------------------------------
D--------------------------------------------- x2 
A77--777---7-7--777---------------------------7     
E---------------------88--888---1010--77777777-
     
Comments