Silverstein - Smashed Into Pieces Chords & Tabs

 

Smashed Into Pieces Chords & Tabs

Silverstein Chords & Tabs

Version: 3 Type: Tab 0 ratings
1 star 2 stars 3 stars 4 stars 5 stars
comments

Smashed Into Pieces Tab

   
Silverstein
Smashed Into Pieces
Tabbed By: DarkStar11589 - darkstar11589@msn.com

Tuning - Drop D (D A D G B E)

=========
Guitar 1
=========

E||----------------------------------|----------------------------------|
B||--10--10--10--10--10--10--10--10--|--9---9---9---9---9---9---9---9---|
G||--11--11--11--11--11--11--11--11--|--11--11--11--11--11--11--11--11--|
D||----------------------------------|----------------------------------|
A||----------------------------------|----------------------------------|
D||----------------------------------|----------------------------------|

----------------------------------|----------------------------|
--10--10--10--10--10--10--10--10--|--9--9--9--9--9--9/-10--10--|
--7---7---7---7---7---7---7---7---|--7--7--7--7--7--7/-7---7---|
----------------------------------|----------------------------|
----------------------------------|----------------------------|
----------------------------------|----------------------------|

----------------------------------|----------------------------------|
--10--10--10--10--10--10--10--10--|--9---9---9---9---9---9---9---9---|
--11--11--11--11--11--11--11--11--|--11--11--11--11--11--11--11--11--|
----------------------------------|----------------------------------|
----------------------------------|----------------------------------|
----------------------------------|----------------------------------|

------------------------------|--------------------------|
------------------------------|--------------------------|
--13----13--13----13--13--13--|--14----14----16----16----|
--x-----x---x-----x---x---x---|--------------------------|
--11----11--11----11--11--11--|--12----12----14----14----|
------------------------------|--------------------------|

------------------------|--------------------------|------------------------|
------------------------|--------------------------|------------------------|
------------------------|--14----13----11----13----|------------------------|
--0----0--0--0--0--0----|--x-----x-----x-----x-----|--4----4--4--4--4--4----|
--0----0--0--0--0--0----|--12----11----9-----11----|--4----4--4--4--4--4----|
--0----0--0--0--0--0----|--------------------------|--4----4--4--4--4--4----|

------------------------|------------------------|--------------------------|
------------------------|------------------------|--------------------------|
--9----7----6--7--6-----|------------------------|--14----13----11----13----|
--x----x----x--x--x--0--|--0----0--0--0--0--0----|--x-----x-----x-----x-----|
--7----5----4--5--4--0--|--0----0--0--0--0--0----|--12----11----9-----11----|
---------------------0--|--0----0--0--0--0--0----|--------------------------|

------------------------|------------------------|------------------------|
------------------------|------------------------|------------------------|
------------------------|------------------------|------------------------|
--4----4--4----4--4--4--|--2----2--2----2--2--2--|--0----0--0--0--0--0----|
--4----4--4----4--4--4--|--2----2--2----2--2--2--|--0----0--0--0--0--0----|
--4----4--4----4--4--4--|--2----2--2----2--2--2--|--0----0--0--0--0--0----|

--------------------------|------------------------|------------------------|
--------------------------|------------------------|------------------------|
--14----13----11----13----|------------------------|--9----7----6--7--6-----|
--x-----x-----x-----x-----|--4----4--4--4--4--4----|--x----x----x--x--x--0--|
--12----11----9-----11----|--4----4--4--4--4--4----|--7----5----4--5--4--0--|
--------------------------|--4----4--4--4--4--4----|---------------------0--|

------------------------|--------------------------|------------------------|
------------------------|--------------------------|------------------------|
------------------------|--14----13----11----13----|------------------------|
--0----0--0--0--0--0----|--x-----x-----x-----x-----|--4----4--4----4--4--4--|
--0----0--0--0--0--0----|--12----11----9-----11----|--4----4--4----4--4--4--|
--0----0--0--0--0--0----|--------------------------|--4----4--4----4--4--4--|

------------------------|---------------------------|
------------------------|---------------------------|
------------------------|---------------------------|
--2----2--2----2--2--2--|----------11--11--9--9--7--|
--2----2--2----2--2--2--|--9----9-------------------|
--2----2--2----2--2--2--|---------------------------|

----------------------------|---------------------------------|
----------------------------|---------------------------------|
----------------------------|---------------------------------|
--7--------11--11--9--9--7--|--7----------11--11--14--14--14--|
-----9--9-------------------|-----12--12----------------------|
----------------------------|---------------------------------|

----------------------------------|----------------------------------|
----------------------------------|----------------------------------|
----------------------------------|----------------------------------|
--------------11--11--14--14------|--------------19--19--18--18--14--|
--12--12--12------------------12--|--12--12--16----------------------|
----------------------------------|----------------------------------|

----------------------------------|----------------------------------|
----------------------------------|----------------------------------|
----------------------------------|----------------------------------|
--14----------19--19--18--18--14--|--14----------19--19--18--18--14--|
------16--16----------------------|------16--16----------------------|
----------------------------------|----------------------------------|

----------------------------------|---------------------------|
----------------------------------|---------------------------|
----------------------------------|---------------------------|
--14----------19--19--18--18--14--|----------11--11--9--9--7--|
------16--16----------------------|--9----9-------------------|
----------------------------------|---------------------------|

----------------------------|---------------------------------|
----------------------------|---------------------------------|
----------------------------|---------------------------------|
--7--------11--11--9--9--7--|--7----------11--11--14--14--14--|
-----9--9-------------------|-----12--12----------------------|
----------------------------|---------------------------------|

----------------------------------|----------------------------------|
----------------------------------|----------------------------------|
----------------------------------|----------------------------------|
--------------11--11--14--14------|--------------19--19--18--18--14--|
--12--12--12------------------12--|--12--12--16----------------------|
----------------------------------|----------------------------------|

----------------------------------|----------------------------------|
----------------------------------|----------------------------------|
----------------------------------|----------------------------------|
--14----------19--19--18--18--14--|--14----------19--19--18--18--14--|
------16--16----------------------|------16--16----------------------|
----------------------------------|----------------------------------|

----------------------------------|------------------------|
----------------------------------|------------------------|
----------------------------------|------------------------|
--14----------19--19--18--18--14--|--0----0--0--0--0--0----|
------16--16----------------------|--0----0--0--0--0--0----|
----------------------------------|--0----0--0--0--0--0----|

--------------------------|------------------------|------------------------|
--------------------------|------------------------|------------------------|
--14----13----11----13----|------------------------|--9----7----6--7--6-----|
--x-----x-----x-----x-----|--4----4--4--4--4--4----|--x----x----x--x--x--0--|
--12----11----9-----11----|--4----4--4--4--4--4----|--7----5----4--5--4--0--|
--------------------------|--4----4--4--4--4--4----|---------------------0--|

------------------------|--------------------------|------------------------|
------------------------|--------------------------|------------------------|
------------------------|--14----13----11----13----|------------------------|
--0----0--0--0--0--0----|--x-----x-----x-----x-----|--4----4--4----4--4--4--|
--0----0--0--0--0--0----|--12----11----9-----11----|--4----4--4----4--4--4--|
--0----0--0--0--0--0----|--------------------------|--4----4--4----4--4--4--|

------------------------|------------------------|--------------------------|
------------------------|------------------------|--------------------------|
------------------------|------------------------|--14----13----11----13----|
--2----2--2----2--2--2--|--0----0--0--0--0--0----|--x-----x-----x-----x-----|
--2----2--2----2--2--2--|--0----0--0--0--0--0----|--12----11----9-----11----|
--2----2--2----2--2--2--|--0----0--0--0--0--0----|--------------------------|

------------------------|------------------------|------------------------|
------------------------|------------------------|------------------------|
------------------------|--9----7----6--7--6-----|------------------------|
--4----4--4--4--4--4----|--x----x----x--x--x--0--|--0----0--0--0--0--0----|
--4----4--4--4--4--4----|--7----5----4--5--4--0--|--0----0--0--0--0--0----|
--4----4--4--4--4--4----|---------------------0--|--0----0--0--0--0--0----|

--------------------------|------------------------|------------------------|
--------------------------|------------------------|------------------------|
--14----13----11----13----|------------------------|------------------------|
--x-----x-----x-----x-----|--4----4--4----4--4--4--|--2----2--2----2--2--2--|
--12----11----9-----11----|--4----4--4----4--4--4--|--2----2--2----2--2--2--|
--------------------------|--4----4--4----4--4--4--|--2----2--2----2--2--2--|

---------------------------|----------------------------|
---------------------------|----------------------------|
---------------------------|----------------------------|
----------11--11--9--9--7--|--7--------11--11--9--9--7--|
--9----9-------------------|-----9--9-------------------|
---------------------------|----------------------------|

---------------------------------|----------------------------------|
---------------------------------|----------------------------------|
---------------------------------|----------------------------------|
--7----------11--11--14--14--14--|--------------11--11--14--14------|
-----12--12----------------------|--12--12--12------------------12--|
---------------------------------|----------------------------------|

----------------------------------|----------------------------------|
----------------------------------|----------------------------------|
----------------------------------|----------------------------------|
--------------19--19--18--18--14--|--14----------19--19--18--18--14--|
--12--12--16----------------------|------16--16----------------------|
----------------------------------|----------------------------------|

----------------------------------|----------------------------------|
----------------------------------|----------------------------------|
----------------------------------|----------------------------------|
--14----------19--19--18--18--14--|--14----------19--19--18--18--14--|
------16--16----------------------|------16--16----------------------|
----------------------------------|----------------------------------|

---------------------------|----------------------------|
---------------------------|----------------------------|
---------------------------|----------------------------|
----------11--11--9--9--7--|--7--------11--11--9--9--7--|
--9----9-------------------|-----9--9-------------------|
---------------------------|----------------------------|

---------------------------------|----------------------------------|
---------------------------------|----------------------------------|
---------------------------------|----------------------------------|
--7----------11--11--14--14--14--|--------------11--11--14--14------|
-----12--12----------------------|--12--12--12------------------12--|
---------------------------------|----------------------------------|

----------------------------------|----------------------------------|
----------------------------------|----------------------------------|
----------------------------------|----------------------------------|
--------------19--19--18--18--14--|--14----------19--19--18--18--14--|
--12--12--16----------------------|------16--16----------------------|
----------------------------------|----------------------------------|

----------------------------------|----------------------------------|
----------------------------------|----------------------------------|
----------------------------------|----------------------------------|
--14----------19--19--18--18--14--|--14----------19--19--18--18--14--|
------16--16----------------------|------16--16----------------------|
----------------------------------|----------------------------------|

--------------9--10--9-----------------|--------------9--10--9-----------------|
--7----9--10--------------10--9--7--9--|--7----9--10--------------10--9--7--9--|
---------------------------------------|---------------------------------------|
---------------------------------------|---------------------------------------|
---------------------------------------|---------------------------------------|
---------------------------------------|---------------------------------------|

--------------9--10--9-----------------|--------------9--10--9-----------------|
--7----9--10--------------10--9--7--9--|--7----9--10--------------10--9--7--9--|
---------------------------------------|---------------------------------------|
---------------------------------------|---------------------------------------|
---------------------------------------|---------------------------------------|
---------------------------------------|---------------------------------------|

--------------9--10--9-----------------|--------------9--10--9-----------------|
--7----9--10--------------10--9--7--9--|--7----9--10--------------10--9--7--9--|
---------------------------------------|---------------------------------------|
---------------------------------------|---------------------------------------|
---------------------------------------|---------------------------------------|
---------------------------------------|---------------------------------------|

--------------9--10--9-----------------|
--7----9--10--------------10--9--7--9--|
---------------------------------------|
---------------------------------------|
---------------------------------------|
---------------------------------------|

--12--10--9--10--9--------------------------|
--------------------12--10--9--10--9--7--9--|
--------------------------------------------|
--------------------------------------------|
--------------------------------------------|
--------------------------------------------|

------------------------------------|------------------------------------|
--7--7----7----7--9----7--7--9h-10--|--7--7----7----7--9----7--7--9h-10--|
------------------------------------|------------------------------------|
------------------------------------|------------------------------------|
------------------------------------|------------------------------------|
------------------------------------|------------------------------------|

-------------------------------------|-------------------------------------|
------------------10----------10h-9--|------------------10----------9h-10--|
--9--9----9----9--------9--9---------|--9--9----9----9--------9--9---------|
-------------------------------------|-------------------------------------|
-------------------------------------|-------------------------------------|
-------------------------------------|-------------------------------------|

------------------------------------|------------------------------------|
--7--7----7----7--9----7--7--9h-10--|--7--7----7----7--9----7--7--9h-10--|
------------------------------------|------------------------------------|
------------------------------------|------------------------------------|
------------------------------------|------------------------------------|
------------------------------------|------------------------------------|

-------------------------------------|-------------------------------------|
------------------10----------10h-9--|------------------10----------9h-10--|
--9--9----9----9--------9--9---------|--9--9----9----9--------9--9---------|
-------------------------------------|-------------------------------------|
-------------------------------------|-------------------------------------|
-------------------------------------|-------------------------------------|

-----------------------------------|-----------------------------------|
-----------------------------------|-----------------------------------|
-----------------------------------|-----------------------------------|
--0--0--0--0--0--0--0----0----0----|--0--0--0--0--0--0--0----0----0----|
--0--0--0--0--0--0--0----0----0----|--0--0--0--0--0--0--0----0----0----|
--0--0--0--0--0--0--0----0----0----|--0--0--0--0--0--0--0----0----0----|

---------------------------|---------------------------|
---------------------------|---------------------------|
---------------------------|---------------------------|
--4------------------------|--2------------------------|
--4------------------------|--2------------------------|
--4------------------------|--2------------------------|

-----------------------------------|-----------------------------------|
-----------------------------------|-----------------------------------|
-----------------------------------|-----------------------------------|
--0--0--0--0--0--0--0----0----0----|--0--0--0--0--0--0--0----0----0----|
--0--0--0--0--0--0--0----0----0----|--0--0--0--0--0--0--0----0----0----|
--0--0--0--0--0--0--0----0----0----|--0--0--0--0--0--0--0----0----0----|

---------------------------|---------------------------|
---------------------------|---------------------------|
---------------------------|---------------------------|
--4------------------------|--2------------------------|
--4------------------------|--2------------------------|
--4------------------------|--2------------------------|

-----------------------------------|-----------------------------------|
-----------------------------------|-----------------------------------|
-----------------------------------|-----------------------------------|
--0--0--0--0--0--0--0----0----0----|--0--0--0--0--0--0--0----0----0----|
--0--0--0--0--0--0--0----0----0----|--0--0--0--0--0--0--0----0----0----|
--0--0--0--0--0--0--0----0----0----|--0--0--0--0--0--0--0----0----0----|

---------------------------|---------------------------|
---------------------------|---------------------------|
---------------------------|---------------------------|
--4------------------------|--2------------------------|
--4------------------------|--2------------------------|
--4------------------------|--2------------------------|

-----------------------------------|-----------------------------------|
-----------------------------------|-----------------------------------|
-----------------------------------|-----------------------------------|
--0--0--0--0--0--0--0----0----0----|--0--0--0--0--0--0--0----0----0----|
--0--0--0--0--0--0--0----0----0----|--0--0--0--0--0--0--0----0----0----|
--0--0--0--0--0--0--0----0----0----|--0--0--0--0--0--0--0----0----0----|

---------------------------|---------------------------|
---------------------------|---------------------------|
---------------------------|---------------------------|
--4------------------------|--2------------------------|
--4------------------------|--2------------------------|
--4------------------------|--2------------------------|

----------------------------|----------------------|------------------------|
----------------------------|----------------------|------------------------|
--11--11--11--11------9--9--|--9--9------9--9------|--9--9--9--9------6--6--|
--x---x---x---x-------x--x--|--x--x------x--x------|--x--x--x--x------x--x--|
--9---9---9---9-------7--7--|--7--7------7--7------|--7--7--7--7------4--4--|
----------------------------|----------------------|------------------------|

----------------------|----------------------------|----------------------|
----------------------|----------------------------|----------------------|
--6--7------6--7------|--11--11--11--11------9--9--|--9--9------9--9------|
--x--x------x--x------|--x---x---x---x-------x--x--|--x--x------x--x------|
--4--5------4--5------|--9---9---9---9-------7--7--|--7--7------7--7------|
----------------------|----------------------------|----------------------|

------------------------|----------------------|
------------------------|----------------------|
--9--9--9--9------6--6--|--6--7------6--7------|
--x--x--x--x------x--x--|--x--x------x--x------|
--7--7--7--7------4--4--|--4--5------4--5------|
------------------------|----------------------|

----------------------------------|----------------------------------|
----------------------------------|----------------------------------|
----------6-6-6-6-4-4-4-4-2-2-2-2-|----------4-4-4-4-2-2-2-2-1-1-1-1-|
--4-4-4-4-------------------------|--2-2-2-2-------------------------|
----------------------------------|----------------------------------|
----------------------------------|----------------------------------|

----------------------------------|----------------------------------|
------------------5-5-5-5---------|----------------------------------|
----------2-2-2-2-----------------|--1-1-1-1-2-2-2-2-4-4-4-4-6-6-6-6-|
--4-4-4-4-----------------2-2-2-2-|----------------------------------|
----------------------------------|----------------------------------|
----------------------------------|----------------------------------|

----------------------------------|----------------------------------|
----------------------------------|----------------------------------|
----------6-6-6-6-4-4-4-4-2-2-2-2-|----------4-4-4-4-2-2-2-2-1-1-1-1-|
--4-4-4-4-------------------------|--2-2-2-2-------------------------|
----------------------------------|----------------------------------|
----------------------------------|----------------------------------|

----------------------------------|----------------------------------|
------------------5-5-5-5---------|----------------------------------|
----------2-2-2-2-----------------|--1-1-1-1-2-2-2-2-4-4-4-4-6-6-6-6-|
--4-4-4-4-----------------2-2-2-2-|----------------------------------|
----------------------------------|----------------------------------|
----------------------------------|----------------------------------|

---------------------------------|----------------------------------|
---------------------------------|----------------------------------|
---------------------------------|--4-4-4-4-2-2-2-2-1-1-1-1---------|
--4--4--4--4--4--4--2------------|--------------------------4-4-4-4-|
--4--4--4--4--4--4--2------------|----------------------------------|
--4--4--4--4--4--4--2------------|----------------------------------|

----------------------------------|----------------------------------|
----------5-5-5-5-----------------|----------------------------------|
--2-2-2-2---------2-2-2-2-2-2-2-2-|--1-1-1-1-2-2-2-2-4-4-4-4-6-6-6-6-|
----------------------------------|----------------------------------|
----------------------------------|----------------------------------|
----------------------------------|----------------------------------|

----------------------------------|----------------------------------|
----------------------------------|----------------------------------|
----------6-6-6-6-4-4-4-4-2-2-2-2-|----------4-4-4-4-2-2-2-2-1-1-1-1-|
--4-4-4-4-------------------------|--2-2-2-2-------------------------|
----------------------------------|----------------------------------|
----------------------------------|----------------------------------|

----------------------------------|---------------------------|
------------------5-5-5-5---------|---------------------------|
----------2-2-2-2-------------2-2-|---------------------------|
--4-4-4-4-----------------2-2-----|----------11--11--9--9--7--|
----------------------------------|--9----9-------------------|
----------------------------------|---------------------------|

----------------------------|---------------------------------|
----------------------------|---------------------------------|
----------------------------|---------------------------------|
--7--------11--11--9--9--7--|--7----------11--11--14--14--14--|
-----9--9-------------------|-----12--12----------------------|
----------------------------|---------------------------------|

----------------------------------|----------------------------------|
----------------------------------|----------------------------------|
----------------------------------|----------------------------------|
--------------11--11--14--14------|--------------19--19--18--18--14--|
--12--12--12------------------12--|--12--12--16----------------------|
----------------------------------|----------------------------------|
[ Tab from: http://www.guitartabs.cc/tabs/s/silverstein/smashed_into_pieces_tab_ver_3.html ]
----------------------------------|----------------------------------|
----------------------------------|----------------------------------|
----------------------------------|----------------------------------|
--14----------19--19--18--18--14--|--14----------19--19--18--18--14--|
------16--16----------------------|------16--16----------------------|
----------------------------------|----------------------------------|

----------------------------------|---------------------------|
----------------------------------|---------------------------|
----------------------------------|---------------------------|
--14----------19--19--18--18--14--|----------11--11--9--9--7--|
------16--16----------------------|--9----9-------------------|
----------------------------------|---------------------------|

----------------------------|---------------------------------|
----------------------------|---------------------------------|
----------------------------|---------------------------------|
--7--------11--11--9--9--7--|--7----------11--11--14--14--14--|
-----9--9-------------------|-----12--12----------------------|
----------------------------|---------------------------------|

----------------------------------|----------------------------------|
----------------------------------|----------------------------------|
----------------------------------|----------------------------------|
--------------11--11--14--14------|--------------19--19--18--18--14--|
--12--12--12------------------12--|--12--12--16----------------------|
----------------------------------|----------------------------------|

----------------------------------|----------------------------------|
----------------------------------|----------------------------------|
----------------------------------|----------------------------------|
--14----------19--19--18--18--14--|--14----------19--19--18--18--14--|
------16--16----------------------|------16--16----------------------|
----------------------------------|----------------------------------|

-------------------------------|-------------------||
-------------------------------|-------------------||
-------------------------------|-------------------||
--14----------19--19--2--2--2--|--0----------------||
------16--16----------2--2--2--|--0----------------||
----------------------2--2--2--|--0----------------||

=========
Guitar2
=========

E||-------------------|--------------------|-------------------|
B||-------------------|--------------------|-------------------|
G||-------------------|--6--------7--------|-------------------|
D||--4----------------|--x--------x--------|--0----------------|
A||--4----------------|--4--------5--------|--0----------------|
D||--4----------------|--------------------|--0----------------|

----------------------|-------------------|--------------------|
----------------------|-------------------|--------------------|
--7--------6/-7/-6----|-------------------|--6--------7--------|
--x--------x--x--x----|--4----------------|--x--------x--------|
--5--------4/-5/-4----|--4----------------|--4--------5--------|
----------------------|--4----------------|--------------------|

------------------------|------------------------|------------------------|
------------------------|------------------------|------------------------|
------------------------|------------------------|------------------------|
--2----2--2----2--2--2--|--2----2--2----2--2--2--|--0----0--0--0--0--0----|
--2----2--2----2--2--2--|--2----2--2----2--2--2--|--0----0--0--0--0--0----|
--2----2--2----2--2--2--|--2----2--2----2--2--2--|--0----0--0--0--0--0----|

-----------------------|------------------------|------------------------|
-----------------------|------------------------|------------------------|
--11----9----7----9----|------------------------|--9----7----6--7--6-----|
--x-----x----x----x----|--4----4--4--4--4--4----|--x----x----x--x--x--0--|
--9-----7----5----7----|--4----4--4--4--4--4----|--7----5----4--5--4--0--|
-----------------------|--4----4--4--4--4--4----|---------------------0--|

------------------------|--------------------------|------------------------|
------------------------|--------------------------|------------------------|
------------------------|--18----16----14----16----|------------------------|
--0----0--0--0--0--0----|--x-----x-----x-----x-----|--4----4--4----4--4--4--|
--0----0--0--0--0--0----|--16----14----12----14----|--4----4--4----4--4--4--|
--0----0--0--0--0--0----|--------------------------|--4----4--4----4--4--4--|

------------------------|------------------------|-----------------------|
------------------------|------------------------|-----------------------|
------------------------|------------------------|--11----9----7----9----|
--2----2--2----2--2--2--|--0----0--0--0--0--0----|--x-----x----x----x----|
--2----2--2----2--2--2--|--0----0--0--0--0--0----|--9-----7----5----7----|
--2----2--2----2--2--2--|--0----0--0--0--0--0----|-----------------------|

------------------------|------------------------|------------------------|
------------------------|------------------------|------------------------|
------------------------|--9----7----6--7--6-----|------------------------|
--4----4--4--4--4--4----|--x----x----x--x--x--0--|--0----0--0--0--0--0----|
--4----4--4--4--4--4----|--7----5----4--5--4--0--|--0----0--0--0--0--0----|
--4----4--4--4--4--4----|---------------------0--|--0----0--0--0--0--0----|

--------------------------|------------------------|------------------------|
--------------------------|------------------------|------------------------|
--18----16----14----16----|------------------------|------------------------|
--x-----x-----x-----x-----|--4----4--4----4--4--4--|--2----2--2----2--2--2--|
--16----14----12----14----|--4----4--4----4--4--4--|--2----2--2----2--2--2--|
--------------------------|--4----4--4----4--4--4--|--2----2--2----2--2--2--|

-------------------------|--------------------------|----------------------------|
-------------------------|--------------------------|----------------------------|
-------------------------|--------------------------|--7----7--7--7--7--7--7-----|
--4----4--4--4--4--4--4--|--4--4--4--4--4--4--4--4--|--7----7--7--7--7--7--7-----|
--4----4--4--4--4--4--4--|--4--4--4--4--4--4--4--4--|--5----5--5--5--5--5--5-----|
--4----4--4--4--4--4--4--|--4--4--4--4--4--4--4--4--|----------------------------|

--------------------------|-------------------------|--------------------------|
--------------------------|-------------------------|--------------------------|
--7--7--7--7--7--7--7--7--|-------------------------|--------------------------|
--7--7--7--7--7--7--7--7--|--7----7--7--7--7--7--7--|--7--7--7--7--7--7--7--7--|
--5--5--5--5--5--5--5--5--|--7----7--7--7--7--7--7--|--7--7--7--7--7--7--7--7--|
--------------------------|--7----7--7--7--7--7--7--|--7--7--7--7--7--7--7--7--|

-------------------------|-------------------------|-------------------------|
-------------------------|-------------------------|-------------------------|
-------------------------|-------------------------|-------------------------|
--6----6--6--6--6--6--6--|--2----2--2--2--2--2--2--|--4----4--4--4--4--4--4--|
--6----6--6--6--6--6--6--|--2----2--2--2--2--2--2--|--4----4--4--4--4--4--4--|
--6----6--6--6--6--6--6--|--2----2--2--2--2--2--2--|--4----4--4--4--4--4--4--|

--------------------------|-------------------------|--------------------------|
--------------------------|-------------------------|--------------------------|
--------------------------|--7----7--7--7--7--7--7--|--7--7--7--7--7--7--7--7--|
--4--4--4--4--4--4--4--4--|--7----7--7--7--7--7--7--|--7--7--7--7--7--7--7--7--|
--4--4--4--4--4--4--4--4--|--5----5--5--5--5--5--5--|--5--5--5--5--5--5--5--5--|
--4--4--4--4--4--4--4--4--|-------------------------|--------------------------|

-------------------------|--------------------------|----------------------------|
-------------------------|--------------------------|----------------------------|
-------------------------|--------------------------|----------------------------|
--7----7--7--7--7--7--7--|--7--7--7--7--7--7--7--7--|--6----6--6--6--6--6--6-----|
--7----7--7--7--7--7--7--|--7--7--7--7--7--7--7--7--|--6----6--6--6--6--6--6-----|
--7----7--7--7--7--7--7--|--7--7--7--7--7--7--7--7--|--6----6--6--6--6--6--6-----|

-------------------------|------------------------|-----------------------|
-------------------------|------------------------|-----------------------|
-------------------------|------------------------|--11----9----7----9----|
--2----2--2--2--2--2--2--|--0----0--0--0--0--0----|--x-----x----x----x----|
--2----2--2--2--2--2--2--|--0----0--0--0--0--0----|--9-----7----5----7----|
--2----2--2--2--2--2--2--|--0----0--0--0--0--0----|-----------------------|

------------------------|------------------------|------------------------|
------------------------|------------------------|------------------------|
------------------------|--9----7----6--7--6-----|------------------------|
--4----4--4--4--4--4----|--x----x----x--x--x--0--|--0----0--0--0--0--0----|
--4----4--4--4--4--4----|--7----5----4--5--4--0--|--0----0--0--0--0--0----|
--4----4--4--4--4--4----|---------------------0--|--0----0--0--0--0--0----|

--------------------------|------------------------|------------------------|
--------------------------|------------------------|------------------------|
--18----16----14----16----|------------------------|------------------------|
--x-----x-----x-----x-----|--4----4--4----4--4--4--|--2----2--2----2--2--2--|
--16----14----12----14----|--4----4--4----4--4--4--|--2----2--2----2--2--2--|
--------------------------|--4----4--4----4--4--4--|--2----2--2----2--2--2--|

------------------------|-----------------------|------------------------|
------------------------|-----------------------|------------------------|
------------------------|--11----9----7----9----|------------------------|
--0----0--0--0--0--0----|--x-----x----x----x----|--4----4--4--4--4--4----|
--0----0--0--0--0--0----|--9-----7----5----7----|--4----4--4--4--4--4----|
--0----0--0--0--0--0----|-----------------------|--4----4--4--4--4--4----|

------------------------|------------------------|--------------------------|
------------------------|------------------------|--------------------------|
--9----7----6--7--6-----|------------------------|--18----16----14----16----|
--x----x----x--x--x--0--|--0----0--0--0--0--0----|--x-----x-----x-----x-----|
--7----5----4--5--4--0--|--0----0--0--0--0--0----|--16----14----12----14----|
---------------------0--|--0----0--0--0--0--0----|--------------------------|

------------------------|------------------------|-------------------------|
------------------------|------------------------|-------------------------|
------------------------|------------------------|-------------------------|
--4----4--4----4--4--4--|--2----2--2----2--2--2--|--4----4--4--4--4--4--4--|
--4----4--4----4--4--4--|--2----2--2----2--2--2--|--4----4--4--4--4--4--4--|
--4----4--4----4--4--4--|--2----2--2----2--2--2--|--4----4--4--4--4--4--4--|

--------------------------|-------------------------|--------------------------|
--------------------------|-------------------------|--------------------------|
--------------------------|--7----7--7--7--7--7--7--|--7--7--7--7--7--7--7--7--|
--4--4--4--4--4--4--4--4--|--7----7--7--7--7--7--7--|--7--7--7--7--7--7--7--7--|
--4--4--4--4--4--4--4--4--|--5----5--5--5--5--5--5--|--5--5--5--5--5--5--5--5--|
--4--4--4--4--4--4--4--4--|-------------------------|--------------------------|

-------------------------|--------------------------|----------------------------|
-------------------------|--------------------------|----------------------------|
-------------------------|--------------------------|----------------------------|
--7----7--7--7--7--7--7--|--7--7--7--7--7--7--7--7--|--6----6--6--6--6--6--6-----|
--7----7--7--7--7--7--7--|--7--7--7--7--7--7--7--7--|--6----6--6--6--6--6--6-----|
--7----7--7--7--7--7--7--|--7--7--7--7--7--7--7--7--|--6----6--6--6--6--6--6-----|

-------------------------|-------------------------|-----------------------------|
-------------------------|-------------------------|-----------------------------|
-------------------------|-------------------------|-----------------------------|
--2----2--2--2--2--2--2--|--4----4--4--4--4--4--4--|--4--4--4--4--4--4--4--4-----|
--2----2--2--2--2--2--2--|--4----4--4--4--4--4--4--|--4--4--4--4--4--4--4--4-----|
--2----2--2--2--2--2--2--|--4----4--4--4--4--4--4--|--4--4--4--4--4--4--4--4-----|

-------------------------|--------------------------|----------------------------|
-------------------------|--------------------------|----------------------------|
--7----7--7--7--7--7--7--|--7--7--7--7--7--7--7--7--|----------------------------|
--7----7--7--7--7--7--7--|--7--7--7--7--7--7--7--7--|--7----7--7--7--7--7--7-----|
--5----5--5--5--5--5--5--|--5--5--5--5--5--5--5--5--|--7----7--7--7--7--7--7-----|
-------------------------|--------------------------|--7----7--7--7--7--7--7-----|

--------------------------|-------------------------|----------------------------|
--------------------------|-------------------------|----------------------------|
--------------------------|-------------------------|----------------------------|
--7--7--7--7--7--7--7--7--|--6----6--6--6--6--6--6--|--2----2--2--2--2--2--2-----|
--7--7--7--7--7--7--7--7--|--6----6--6--6--6--6--6--|--2----2--2--2--2--2--2-----|
--7--7--7--7--7--7--7--7--|--6----6--6--6--6--6--6--|--2----2--2--2--2--2--2-----|

---------------------------|--------------------------|
---------------------------|--------------------------|
---------------------------|--------------------------|
--0------------------------|--------------------------|
--0------------------------|--------------------------|
--0------------------------|--------------------------|

---------------------------|---------------------------|
---------------------------|---------------------------|
---------------------------|---------------------------|
--4------------------------|--2------------------------|
--4------------------------|--2------------------------|
--4------------------------|--2------------------------|

---------------------------|--------------------------|
---------------------------|--------------------------|
---------------------------|--------------------------|
--0------------------------|--------------------------|
--0------------------------|--------------------------|
--0------------------------|--------------------------|

---------------------------|---------------------------|
---------------------------|---------------------------|
---------------------------|---------------------------|
--4------------------------|--2------------------------|
--4------------------------|--2------------------------|
--4------------------------|--2------------------------|

-----------------------------------|-----------------------------------|
-----------------------------------|-----------------------------------|
-----------------------------------|-----------------------------------|
------------------6----------6h-7--|------------------6----------6h-7--|
--5--5----5----5-------5--5--------|--5--5----5----5-------5--5--------|
-----------------------------------|-----------------------------------|

-----------------------------------|------------------------------------|
-----------------------------------|------------------------------------|
-----------------------------------|------------------------------------|
------------------7----------7h-9--|------------------7----------9h-11--|
--9--9----9----9-------9--9--------|--9--9----9----9-------9--9---------|
-----------------------------------|------------------------------------|

-----------------------------------|-----------------------------------|
-----------------------------------|-----------------------------------|
-----------------------------------|-----------------------------------|
------------------6----------6h-7--|------------------6----------6h-7--|
--5--5----5----5-------5--5--------|--5--5----5----5-------5--5--------|
-----------------------------------|-----------------------------------|

-----------------------------------|------------------------------------|
-----------------------------------|------------------------------------|
-----------------------------------|------------------------------------|
------------------7----------7h-9--|------------------7----------9h-11--|
--9--9----9----9-------9--9--------|--9--9----9----9-------9--9---------|
-----------------------------------|------------------------------------|

-----------------------------------|-----------------------------------|
-----------------------------------|-----------------------------------|
-----------------------------------|-----------------------------------|
--0--0--0--0--0--0--0----0----0----|--0--0--0--0--0--0--0----0----0----|
--0--0--0--0--0--0--0----0----0----|--0--0--0--0--0--0--0----0----0----|
--0--0--0--0--0--0--0----0----0----|--0--0--0--0--0--0--0----0----0----|

---------------------------|---------------------------|
---------------------------|---------------------------|
---------------------------|---------------------------|
--4------------------------|--2------------------------|
--4------------------------|--2------------------------|
--4------------------------|--2------------------------|

-----------------------------------|-----------------------------------|
-----------------------------------|-----------------------------------|
-----------------------------------|-----------------------------------|
--0--0--0--0--0--0--0----0----0----|--0--0--0--0--0--0--0----0----0----|
--0--0--0--0--0--0--0----0----0----|--0--0--0--0--0--0--0----0----0----|
--0--0--0--0--0--0--0----0----0----|--0--0--0--0--0--0--0----0----0----|

---------------------------|---------------------------|
---------------------------|---------------------------|
---------------------------|---------------------------|
--4------------------------|--2------------------------|
--4------------------------|--2------------------------|
--4------------------------|--2------------------------|

-----------------------------------|-----------------------------------|
-----------------------------------|-----------------------------------|
-----------------------------------|-----------------------------------|
--0--0--0--0--0--0--0----0----0----|--0--0--0--0--0--0--0----0----0----|
--0--0--0--0--0--0--0----0----0----|--0--0--0--0--0--0--0----0----0----|
--0--0--0--0--0--0--0----0----0----|--0--0--0--0--0--0--0----0----0----|

---------------------------|---------------------------|
---------------------------|---------------------------|
---------------------------|---------------------------|
--4------------------------|--2------------------------|
--4------------------------|--2------------------------|
--4------------------------|--2------------------------|

-----------------------------------|-----------------------------------|
-----------------------------------|-----------------------------------|
-----------------------------------|-----------------------------------|
--0--0--0--0--0--0--0----0----0----|--0--0--0--0--0--0--0----0----0----|
--0--0--0--0--0--0--0----0----0----|--0--0--0--0--0--0--0----0----0----|
--0--0--0--0--0--0--0----0----0----|--0--0--0--0--0--0--0----0----0----|

---------------------------|---------------------------|
---------------------------|---------------------------|
---------------------------|---------------------------|
--4------------------------|--2------------------------|
--4------------------------|--2------------------------|
--4------------------------|--2------------------------|

----------------------------|----------------------|------------------------|
----------------------------|----------------------|------------------------|
--11--11--11--11------9--9--|--9--9------9--9------|--9--9--9--9------6--6--|
--x---x---x---x-------x--x--|--x--x------x--x------|--x--x--x--x------x--x--|
--9---9---9---9-------7--7--|--7--7------7--7------|--7--7--7--7------4--4--|
----------------------------|----------------------|------------------------|

----------------------|----------------------------|----------------------|
----------------------|----------------------------|----------------------|
--6--7------6--7------|--11--11--11--11------9--9--|--9--9------9--9------|
--x--x------x--x------|--x---x---x---x-------x--x--|--x--x------x--x------|
--4--5------4--5------|--9---9---9---9-------7--7--|--7--7------7--7------|
----------------------|----------------------------|----------------------|

------------------------|----------------------|------------------------|
------------------------|----------------------|------------------------|
--9--9--9--9------6--6--|--6--7------6--7------|------------------------|
--x--x--x--x------x--x--|--x--x------x--x------|--4----4--4----4--4--4--|
--7--7--7--7------4--4--|--4--5------4--5------|--4----4--4----4--4--4--|
------------------------|----------------------|--4----4--4----4--4--4--|

------------------------|------------------------|------------------------|
------------------------|------------------------|------------------------|
------------------------|------------------------|------------------------|
--2----2--2----2--2--2--|--0----0--0----0--0--0--|--2----2--2----2--2--2--|
--2----2--2----2--2--2--|--0----0--0----0--0--0--|--2----2--2----2--2--2--|
--2----2--2----2--2--2--|--0----0--0----0--0--0--|--2----2--2----2--2--2--|

------------------------|------------------------|------------------------|
------------------------|------------------------|------------------------|
------------------------|------------------------|------------------------|
--4----4--4----4--4--4--|--2----2--2----2--2--2--|--0----0--0----0--0--0--|
--4----4--4----4--4--4--|--2----2--2----2--2--2--|--0----0--0----0--0--0--|
--4----4--4----4--4--4--|--2----2--2----2--2--2--|--0----0--0----0--0--0--|

------------------------|---------------------------------|
------------------------|---------------------------------|
------------------------|---------------------------------|
--2----2--2----2--2--2--|--4--4--4--4--4--4--2------------|
--2----2--2----2--2--2--|--4--4--4--4--4--4--2------------|
--2----2--2----2--2--2--|--4--4--4--4--4--4--2------------|

------------------------|------------------------|------------------------|
------------------------|------------------------|------------------------|
------------------------|------------------------|------------------------|
--0----0--0----0--0--0--|--2----2--2----2--2--2--|--4----4--4----4--4--4--|
--0----0--0----0--0--0--|--2----2--2----2--2--2--|--4----4--4----4--4--4--|
--0----0--0----0--0--0--|--2----2--2----2--2--2--|--4----4--4----4--4--4--|

------------------------|------------------------|------------------------|
------------------------|------------------------|------------------------|
------------------------|------------------------|------------------------|
--2----2--2----2--2--2--|--0----0--0----0--0--0--|--2----2--2----2--2--2--|
--2----2--2----2--2--2--|--0----0--0----0--0--0--|--2----2--2----2--2--2--|
--2----2--2----2--2--2--|--0----0--0----0--0--0--|--2----2--2----2--2--2--|

-------------------------|--------------------------|----------------------------|
-------------------------|--------------------------|----------------------------|
-------------------------|--------------------------|--7----7--7--7--7--7--7-----|
--4----4--4--4--4--4--4--|--4--4--4--4--4--4--4--4--|--7----7--7--7--7--7--7-----|
--4----4--4--4--4--4--4--|--4--4--4--4--4--4--4--4--|--5----5--5--5--5--5--5-----|
--4----4--4--4--4--4--4--|--4--4--4--4--4--4--4--4--|----------------------------|

--------------------------|-------------------------|--------------------------|
--------------------------|-------------------------|--------------------------|
--7--7--7--7--7--7--7--7--|-------------------------|--------------------------|
--7--7--7--7--7--7--7--7--|--7----7--7--7--7--7--7--|--7--7--7--7--7--7--7--7--|
--5--5--5--5--5--5--5--5--|--7----7--7--7--7--7--7--|--7--7--7--7--7--7--7--7--|
--------------------------|--7----7--7--7--7--7--7--|--7--7--7--7--7--7--7--7--|

-------------------------|-------------------------|-------------------------|
-------------------------|-------------------------|-------------------------|
-------------------------|-------------------------|-------------------------|
--6----6--6--6--6--6--6--|--2----2--2--2--2--2--2--|--4----4--4--4--4--4--4--|
--6----6--6--6--6--6--6--|--2----2--2--2--2--2--2--|--4----4--4--4--4--4--4--|
--6----6--6--6--6--6--6--|--2----2--2--2--2--2--2--|--4----4--4--4--4--4--4--|

--------------------------|-------------------------|--------------------------|
--------------------------|-------------------------|--------------------------|
--------------------------|--7----7--7--7--7--7--7--|--7--7--7--7--7--7--7--7--|
--4--4--4--4--4--4--4--4--|--7----7--7--7--7--7--7--|--7--7--7--7--7--7--7--7--|
--4--4--4--4--4--4--4--4--|--5----5--5--5--5--5--5--|--5--5--5--5--5--5--5--5--|
--4--4--4--4--4--4--4--4--|-------------------------|--------------------------|

-------------------------|--------------------------|----------------------------|
-------------------------|--------------------------|----------------------------|
-------------------------|--------------------------|----------------------------|
--7----7--7--7--7--7--7--|--7--7--7--7--7--7--7--7--|--6----6--6--6--6--6--6-----|
--7----7--7--7--7--7--7--|--7--7--7--7--7--7--7--7--|--6----6--6--6--6--6--6-----|
--7----7--7--7--7--7--7--|--7--7--7--7--7--7--7--7--|--6----6--6--6--6--6--6-----|

-------------------------|-------------------||
-------------------------|-------------------||
-------------------------|-------------------||
--2----2--2--2--2--2--2--|--0----------------||
--2----2--2--2--2--2--2--|--0----------------||
--2----2--2--2--2--2--2--|--0----------------||
Comments