Silverstein - Red Light Pledge Chords & Tabs

 

Red Light Pledge Chords & Tabs

Silverstein Chords & Tabs

Version: 1 Type: Bass Tab 0 ratings
1 star 2 stars 3 stars 4 stars 5 stars
comments

Red Light Pledge Bass Tab

   
Band - Silverstein
Song - Red Light Pledge
Tabber - 555_Maggot_666
Tuning - Standard (E,A,D,G)

Intro
G|---------------------------------|
D|---------------------------------| x3
A|-------------------------12-10-9-|
E|-0~----0~----8~----8~------------|

G|-------------------------------------------|
D|-------------------------------------------|
A|-------------------------------------------|
E|-0~----0~----8~----8~----8~---------888888-|

Pre-Chorus
G|-------------------------------|
D|-------------------------------| x2
A|-7777777-5-7----33333----55555-|
E|-----------00-------00---------|

G|-----------------------------------------|
D|-----------------------------------------|
A|--------777----------777-3333333-5555555-|
E|-000000-------000000---------------------|

G|---------------------------------|
D|---------------------------------|
A|-----777-----777-3333333-5555555-|
E|-000-----000---------------------|

Chorus x2
G|--------------------------------|
D|--------------------------------|
A|-2222222-5555555-77777777777777-|
E|--------------------------------|
[ Tab from: http://www.guitartabs.cc/tabs/s/silverstein/red_light_pledge_btab.html ]
G|--------------------------------|
D|--------------------------------|
A|-2222222-5555555-33333333333333-|
E|--------------------------------|

Pre-Chorus
G|-------------------------------|
D|-------------------------------| x2
A|-7777777-5-7----33333----55555-|
E|-----------00-------00---------|

G|-----------------------------------------|
D|-----------------------------------------|
A|--------777----------777-3333333-5555555-|
E|-000000-------000000---------------------|

G|------------------------------------|
D|------------------------------------|
A|-----777-----777-3333333-5555555----|
E|-000-----000---------------------0~-|

Bridge
G|----------------------|
D|----------------------|
A|----------------------|
E|-3~----3~----3~----3~-|

G|--------------------------------------------------|
D|--------------------------------------------------|
A|--------------------------------------------------|
E|-7~----7~----5~----5~----3~----3~----333333333333-|

G|--------------------------------------|
D|--------------------------------------| x2
A|--------------------------------------|
E|-77777777-55555555-333333333333333-00-|

G|-----------------------------------------|
D|-----------------------------------------| x6
A|-----------------------------------------|
E|-77777777----55555555----333333333333333-|

Enjoy
Comments