Silverstein - November Chords & Tabs

 

November Chords & Tabs

Silverstein Chords & Tabs

Version: 1 Type: Bass Tab 0 ratings
1 star 2 stars 3 stars 4 stars 5 stars
comments

November Bass Tab

   
                           Silverstein
                             November
Tabbed by: Ron Curtis

Tuning: D A D G

Intro 0:00 (1st time) 0:04 (2nd time)
G|-------------------------|
D|-------------------------|
A|-4/6-6-66-4-6-2-2-22-4-2-| x2
D|-------------------------|

0:08 (1st time) 0:12 (2nd time) 0:16 (3rd time)
G|-----------------------|
D|-----------------------|
A|--------4-6-2-2-22-4-2-| x3
D|-1-1-11----------------|

0:20
G|--------------------------|
D|--------------------------|
A|--------(*4-6-66666666**)-|
D|-11-1-11-1-1-111111111**--|
*I'm not sure which is played, obviously you can't play them both, so pick one, they both sound great.
**let it ring if you want, but it doesn’t do it on the CD.

Pre-verse 0:26
G|------------------------------------------------------|
D|------------------------------------------------------|
A|-6~~~~~~~~~~~~4~~~~~~~~~~~~6~~~~~~9~~~~~~4~~~~~~~~~~~~|
D|------------------------------------------------------|

Verse 0:42 (1st time) 0:50 (2nd time) 0:58 (3rd time)
G|-----------------------------------------------------------------|
D|-----------------------------------------------------------------|
A|-6-6-6-6-6-6-6-6-9-9-9-9-9-9-9-9-4-4-4-4-4-4-4-4-4-4-4-4-4-4-4-4-| x3
D|-----------------------------------------------------------------|

Chorus 1:06 (1st time) 1:21 (2nd time)
G|---------------------------------------------------------------------|
D|---------------------------------------------------------------------|
A|-6-6-6-6-6-6-2-2-2-2-2-2-1-1-1-1-1-1-2---4---6-6-6-6-6-6-2-2-2-2-2-2-|
D|---------------------------------------------------------------------|

more Chorus
G|-------------------------|
D|-------------------------|
A|-------------------------|
D|-4-4-4-4-4-4-4-4-4-3-3-3-|x2 (repeat whole Chorus)

Pause for a second
[ Tab from: http://www.guitartabs.cc/tabs/s/silverstein/november_btab.html ]
Verse 1:41 (1st time) 1:53 (2nd time)  2:01 (3rd time)
G|----------------------------------------------------------------------|
D|----------------------------------------------------------------------|
A|-*4----6-6-6-6-6-6-6-6-9-9-9-9-9-9-9-9-4-4-4-4-4-4-4-4-4-4-4-4-4-4-4-4| x3
D|----------------------------------------------------------------------|
*1st time only, then repeat the actual verse

Chorus 2:10 (1st time) 2:18 (2nd time) 2:25 (3rd time)
G|---------------------------------------------------------------------|
D|---------------------------------------------------------------------|
A|-6-6-6-6-6-6-2-2-2-2-2-2-1-1-1-1-1-1-2---4---6-6-6-6-6-6-2-2-2-2-2-2-|
D|---------------------------------------------------------------------|

G|-------------------------|
D|-------------------------|
A|-------------------------|
D|-4-4-4-4-4-4-4-4-4-3-3-3-|x3

Pause

Bridge 2:52 (1st time) 3:03 (2nd time)
G|-----------------------------------------------------|
D|-----------------------------------------------------|
A|-*66666----2----1----4----24*66666----2--------------|
D|-------------------------------------------4----468-8| x2
*play with Guitars/Bass drum. 16th notes. If you can't play it, just play
A|6-6, or 6-6-6|

Heavy Part 3:14 (1st time)  3:29 (2nd time)
G|-------------------------------------|
D|-------------------------------------|
A|-------------------------------------|
D|-1-1-11--9-9-99--8-8-88--9-8-6-4-1-4-|

G|---------------------------------------|
D|---------------------------------------|
A|---------------------------------------|
D|-1-1-11--9-9-99--4-4-44--9\8-4-9\8-4-6-| repeat heavy part 2 times

2nd Heavy Part 3:43 (1st time) 3:58 (2nd time)
G|--------------------------------|
D|--------------------------------|
A|--------------------------------|
D|-1-1-11--9-9-99--8-8-88-8-8--6--|

G|------------------------|--------|
D|------------------------|--------|
A|------------------------|--------|
D|-1-1-11--9-9-99--4-4-44-|4-4--3--|repeat 2nd heavy part 2 times
stop here on the last time ^ then go to outro.

Outro 4:11
G|----------------|
D|----------------|
A|-10-9-7-5-2-5-7-|
D|----------------|

Tips: Add some falls and stuff. Like on the heavy parts, try sliding up from "1-9".
On the Intro, how it's like "6-6-66-4-6-2" and some of that lick into the chorus's at
times. Not all the time, but every once in a while. Give the song some character.

\=slide down
~=let the note ring
Comments