Silverstein - My Heroine Chords & Tabs

 

My Heroine Chords & Tabs

Silverstein Chords & Tabs

Version: 2 Type: Tab

My Heroine Tab

 Tabbed by:Daniel Stapp
 Tuning:Standard(EBGDAE)



    

   Guitar 1

E|-----------------------------------------------------------------------|
B|-----------------------------------------------------------------------|
G|---------0-------------------0-------------------0-----0-----0---------|
D|----9------------0-------0------------------0--------------------------|
A|------10---10-------------10---10-------------9----9-----9-----9-------|
E|--0------------------8-------------8-----10---------10----10----10-----|



   Guitar 2 (Starts at "The drugs begin to peak...")
  Let ring					
e |--------------------------------------------------|
B |--------------------------------------------------|
G |-9------------5-------------7---------------------|    2x
D |-9------------5-------------7---------------------|
A |-7------------3-------------5---------------------|
E |--------------------------------------------------|


e |---------------------------------------------------------|
B |---------------------------------------------------------|
G |-5------------7-------------9-------------7--------------|
D |-5------------7-------------9-------------7--------------|
A |-3------------5-------------7-------------5--------------|
E |---------------------------------------------------------|



				PM
e |------------------------------------------------------------|
B |------------------------------------------------------------|
G |-5------------7-----------------------------7-7-7-7-7-7-7-7-|
D |-5------------7-------------2-2-2-2-2-2-2-2-7-7-7-7-7-7-7-7-|
A |-3------------5-------------2-2-2-2-2-2-2-2-5-5-5-5-5-5-5-5-|
E |----------------------------0-0-0-0-0-0-0-0-----------------|
[ Tab from: http://www.guitartabs.cc/tabs/s/silverstein/my_heroine_tab_ver_2.html ]
Part 2: Pre-Chorus ("You won't try to save me...")

Both guitars
e |---------------------------------------------------------|
B |---------------------------------------------------------|
G |---------------5--5-5--5-5-5-7--7-7--7-7-7---------------|
D |-2--2-2--2-2-2-5--5-5--5-5-5-7--7-7--7-7-7-5-4-7-4-5-----|
A |-2--2-2--2-2-2-3--3-3--3-3-3-5--5-5--5-5-5-5-4-7-4-5-----|
E |-0--0-0--0-0-0-----------------------------3-2-5-2-3-----|

e |---------------------------------------------------------|
B |---------------------------------------------------------|
G |---------------5--5-5--5-5-5-7--7-7--7-7-7---------------|
D |-2--2-2--2-2-2-5--5-5--5-5-5-7--7-7--7-7-7-5-5-4-5-4-----|
A |-2--2-2--2-2-2-3--3-3--3-3-3-5--5-5--5-5-5-5-5-4-5-4-----|
E |-0--0-0--0-0-0-----------------------------3-3-2-3-2p0---|

Part 3: Chorus ("You taught my heart...")

Guitar 1	
(Strumming pattern not shown)				        Play x3
e |--------------------------------------------------------------------|
B |----------------------------------------------12-12-10-10-8-8-7--5--|
G |-9------------11-----------12----------------(12)--(11)--(9)-(7)(5)-|
D |--------------------------------------------------------------------|
A |-7------------9------------10---------------------------------------|
E |--------------------------------------------------------------------|



Keep strumming	              PM
e |---------------------------------------------------------|
B |---------------------------------------------------------|
G |-9-------------------------7-7-7-7-7-7-7-7-7-7-7-7-7-7-7-|
D |---------------------------7-7-7-7-7-7-7-7-7-7-7-7-7-7-7-|
A |-7-------------------------5-5-5-5-5-5-5-5-5-5-5-5-5-5-5-|
E |---------------------------------------------------------|