Silverstein - Ides Of March Chords & Tabs

 

Ides Of March Chords & Tabs

Silverstein Chords & Tabs

Version: 3 Type: Tab

Ides Of March Tab

   
Band: Silverstein
Album: Discovering the waterfront (2005)
Tabbed by: Darcy Baylis - escape_artists_never_die17@hotmail.com

Amp settings (guitar 1):
Intro/verse:
Overdrive: off
Bass: 9.5
Treble: 2

The rest of the song is the same except with overdrive on and set at 9.5

Amp settings (guitar 2)
Whole song:
Overdrive: 9.5
Bass: 9.5
Treble: 2

Hi! I saw that the other versions of this song were only intros and verses, and i wanted 
learn the whole thing so i decided to tab it myself. The bands tuning is actually 
but it sounds way btter in this tuning. Anyways here it is:

Intro/verse: (Guitar 1)
d-----------|
a-----------|
f-----------|
c-------11b-|
g-----9-----|
a-9-9-------|

[Guitar 2 is silent for this]

Pre chorus: (both guitars)
d-----------------------|
a-----------------------|
f-----------------------|
c-9--x6--0-x6--2--x6--5-|
g-9------0-----2------5-|
a-9------0-----2------5-|

Chorus: (guitar 1) [This is when the overdrive kicks in]
d-------------------------|
a-------------------------|
f-------------------------|
c-9-x11-0-x11-2-x11-5-x11-|
g-9-----0-----2-----5-----|
a-9-----0-----2-----5-----|
[ Tab from: http://www.guitartabs.cc/tabs/s/silverstein/ides_of_march_tab_ver_3.html ]
Chorus: (guitar 2)
d-----------------------|
a-----------------------|
f-11--x6--7--x6--9--x6--|
c-x-------x------x------|
g-9-------5------7------|
a-----------------------|

Repeat verse
Repeat chorus

Bridge: (guitar 1)
d-------------------------------------------------------|
a-------------------------------------------------------|
f-------------------------------------------------------|
c-9-9-9-9--9-9-9-9--9-9-9-9--9-9-9-9---5-5-5-5--7-7-7-7-|
g-9-9-9-9--9-9-9-9--9-9-9-9--9-9-9-9---5-5-5-5--7-7-7-7-|
a-9-9-9-9--9-9-9-9--9-9-9-9--9-9-9-9---5-5-5-5--7-7-7-7-|

Bridge: (guitar 2)
d------------------------------------------------------|
a------------------------------------------------------|
f------------------------------------------------------|
c-11h12p11--11h12p11--7-7-7-7-7-7-7-7--9-9-9-9-9-9-9-9-|
g------------------------------------------------------|
a------------------------------------------------------|

Little bit before last chorus (guitar 1 plays pre chorus, and guitar 2 plays pre chourus 
palm muted)

Then repeat chorus twice and your done!

h=hammer-on
p=pull off
.=palm mute
b=bend
r=release

 ===========================================================================